Log in

One click and you are in

Login with Facebook Login with Google

Why sign up and log in

Guitar Tabs Explorer
Audioslave bass tabs for Worm

Bass tabs

Album: Out Of Exile



Tuning: LOW E DOWN TO B
G|-------|
D|-------|
A|--0-2--| x8
B|-------|


G|-------|
D|-------|
A|-------|
B|---0---| let ring


G|-------------------|----------------------|-------------------|
D|-------------------|----------------------|-------------------|
A|--2-0-2-5-2-5/--7--|----------------------|-------------------| x3
B|-------------------|--7-10-7\--5-7-5\--3--|--7-5-7-5\--3-5-0--| let ring


G|----------------------|
D|----------------------|
A|----------------------|
B|--7-10\--5-3-0-5-3-0--| x3


G|-----------------------|-------|
D|-----------------------|-------|
A|-----------------------|-------|
B|--12-10\--5-3-0-5-3-0--|---0---| let ring

G|-------------------|----------------------|-------------------|
D|-------------------|----------------------|-------------------|
A|--2-0-2-5-2-5/--7--|----------------------|-------------------| x3
B|-------------------|--7-10-7\--5-7-5\--3--|--7-5-7-5\--3-5-0--| let ring


G|----------------------|
D|----------------------|
A|----------------------|
B|--7-10\--5-3-0-5-3-0--| x3


G|-----------------------|
D|-----------------------|
A|-----------------------|
B|--12-10\--5-3-0-5-3-0--|


G|-------|
D|-------|
A|--0-2--| x4
B|-------|


G|-----------------------|
D|-----------------------|
A|-----------------------|
B|--12-10\--5-3-0-5-3-0--|


G|-----------------------|
D|-----------------------|
A|-----------------------|
B|--12-10\--5-3-0-5-0-3--|


G|-----------------------|
D|-----------------------|
A|-----------------------|
B|--12-10\--5-3-0-5-0-3--|


G|--------------------------|
D|--------------------------|
A|--------------------------|
B|--7-10\--5-3-0-5-3-0-5-3--|


G|-----------------------|
D|-----------------------|
A|-----------------------|
B|--12-10\--5-3-0-5-3-0--|


G|-----------------------|
D|-----------------------|
A|-----------------------|
B|--12-10\--5-3-0-5-0-3--|


G|-----------------------|
D|-----------------------|
A|-----------------------|
B|--12-10\--5-3-0-5-3-0--|


G|----------------------|
D|----------------------|
A|----------------------|
B|--7-10\--5-3-0-5-3-0--|


G|---------------------------------------------------|
D|---------------------------------------------------|
A|---------------------------------------------------|
B|--12-12-12-12-12-12-12-12-12-12-12-12-12-12-12-12--|


G|-----------------------------------|
D|-----------------------------------|
A|--9-9-9-9-9-9-9-9-9-9-9-9-9-9-9-9--|
B|-----------------------------------


G|---------------------------------------------------|
D|---------------------------------------------------|
A|---------------------------------------------------|
B|--10-10-10-10-10-10-10-10-10-10-10-10-10-10-10-10--|


G|-------------------|-------------------|
D|-------------------|-------------------|
A|-------------------|-------------------|
B|--5-5-5-5-5-5-5-5--|--3-3-3-3-2-2-2-2--|


G|---------------------------------------------------|
D|---------------------------------------------------|
A|---------------------------------------------------|
B|--12-12-12-12-12-12-12-12-12-12-12-12-12-12-12-12--|


G|-----------------------------------|
D|-----------------------------------|
A|--9-9-9-9-9-9-9-9-9-9-9-9-9-9-9-9--
B|-----------------------------------


G|---------------------------------------------------|
D|---------------------------------------------------|
A|--12-12-12-12-12-12-12-12-12-12-12-12-12-12-12-12--|
B|---------------------------------------------------|


G|-------------------|-------------------|
D|-------------------|-------------------|
A|--7-7-7-7-7-7-7-7--|--5-5-5-5-4-4-4-4--|
B|-------------------|-------------------|


G|-------|-------|
D|-------|-------|
A|--0-2--|-------| x3
B|-------|---0---| let ring


G|-----------------------|
D|-----------------------|
A|-----------------------|
B|--12-10\--5-3-0-5-3-0--|


G|----------------------|
D|----------------------|
A|----------------------|
B|--7-10\--5-3-0-5-3-0--| x3


G|-----------------------|-------|
D|-----------------------|-------|
A|-----------------------|-------|
B|--12-10\--5-3-0-5-3-0--|---0---| let ring


| / slide up
| \ slide down

Almost there ...

Sign in to get your own page with links to favourite songs and more. You are just one click away...

Login with Facebook Login with Google