Log in

One click and you are in

Login with Facebook Login with Google

Why sign up and log in

Guitar Tabs Explorer
Audioslave bass tabs for Wide awake

Bass tabs

Wide awake by Audioslave

This is the best track off of the new album Revelations.
The tab should be 99% correct, i'm just a bit unsure about the guitar solo

Drop d tuning
Intro/verse
G|------------------|
D|-----2h320---3000-|
A|------------------|
D|-0-0-------0------|


Pre chorus (listen to it to get the timing right)
G|------------------|x2
D|-----2h320---3000-|
A|------------------|
D|-0-0-------0------|

G|---------------------------------|x1
D|---------------------------------|
A|-1-1-1-1-1-1-1-1-5-5-5-5-8-8-8-8-|
D|---------------------------------|

G|------------------|x2
D|-----2h320---3000-|
A|------------------|
D|-0-0-------0------|

G|---------------------------------|x1
D|---------------------------------|
A|-1-1-1-1-1-1-1-1-5-5-5-5-8-8-8-8-|
D|---------------------------------|

G|------------------------------------------|
D|------------------------------------------|
A|-----------------/12-12-12-12-12-12-12-12-|
D|-7-7-7-7-7-7-7-7--------------------------|

Chorus
G|------------------------------------------------------------------|
D|------------------------------------------------------------------|
A|-5-5-5-5-5-5-5-5-5-5-5-5-5-5-5-5-3-3-3-3-3-3-3-3-/8-8-8-8-7-7-7-7-|
D|------------------------------------------------------------------|

---------------------------------------------------|x2
---------------------------------------------------|
---1-1-1-1-1-1-1-1-5-5-5-5-8-8-8-8-3-3-3-3-3-3-3-3-|
---------------------------------------------------|

G|-------------------------------------|
D|-------------------------------------|
A|-3-3-3-3-3-3-3-3-8-8-8-8-10-10-10-10-|
D|-------------------------------------|


Verse
G|------------------|
D|-----2h320---3000-|
A|------------------|
D|-0-0-------0------|


Pre chorus
G|------------------|x2
D|-----2h320---3000-|
A|------------------|
D|-0-0-------0------|

G|---------------------------------|x1
D|---------------------------------|
A|-1-1-1-1-1-1-1-1-5-5-5-5-8-8-8-8-|
D|---------------------------------|

G|------------------------------------------|
D|------------------------------------------|
A|-----------------/12-12-12-12-12-12-12-12-|
D|-7-7-7-7-7-7-7-7--------------------------|


Chorus
G|------------------------------------------------------------------|
D|------------------------------------------------------------------|
A|-5-5-5-5-5-5-5-5-5-5-5-5-5-5-5-5-3-3-3-3-3-3-3-3-/8-8-8-8-7-7-7-7-|
D|------------------------------------------------------------------|

---------------------------------------------------|
---------------------------------------------------|
---1-1-1-1-1-1-1-1-5-5-5-5-8-8-8-8-3-3-3-3-3-3-3-3-|
---------------------------------------------------|

G|------------------------------------------------------------------|
D|------------------------------------------------------------------|
A|-5-5-5-5-5-5-5-5-5-5-5-5-5-5-5-5-3-3-3-3-3-3-3-3-/8-8-8-8-7-7-7-7-|
D|------------------------------------------------------------------|

-------------2-3--------------------------------|
------0-2-3-2-----------------------------------|
---1-3----------5-5-5-5-8-8-8-8-3-3-3-3-3-3-3-3-|
------------------------------------------------|

G|-------------------------------------|
D|-------------------------------------|
A|-3-3-3-3-3-3-3-3-8-8-8-8-10-10-10-10-|
D|-------------------------------------|


Solo
G|-----------------------------|
D|-----------------------------|
A|-5(x16)-3(x16)-1(x16)-3(x16)-|
D|-----------------------------|


Pre chorus 2
G|---------------------------------|
D|---------------------------------|
A|-3-3-3-3-3-3-3-3-3-3-3-3-3-3-3-3-|
D|---------------------------------|


Outro
G|------------------------------------------------------------------|
D|------------------------------------------------------------------|
A|-5-5-5-5-5-5-5-5-5-5-5-5-5-5-5-5-3-3-3-3-3-3-3-3-/8-8-8-8-7-7-7-7-|
D|------------------------------------------------------------------|

-------------2-3-----------------------------------------------------|
------0-2-3-2----------------------2-3-2---2-3-2---------------------|
--1-3------------5-5-5-5-8-8-8-8-3-------3-------8-8-8-8-10-10-10-10-|
---------------------------------------------------------------------|

-----------------------------------------------------------|
-----------------------------------------------------------|
--5(x16)-3(x16)--------3-3-3-3-3-3-3-3-8-8-8-8-10-10-10-10-|
----------------3(x16)-------------------------------------|

G|---|
D|---|
A|-5-|
D|---|

Almost there ...

Sign in to get your own page with links to favourite songs and more. You are just one click away...

Login with Facebook Login with Google