Log in

One click and you are in

Login with Facebook Login with Google

Why sign up and log in

Guitar Tabs Explorer
Audioslave tabs for Sound of a gun

Guitar tabs

tabs by aaron b.             h= hammer-on
                                       p= pull-off
drop A chord diagramD MajorD tuning                 x= mute


|--15--15--15--15--19--19--19--19--17--17--17--17---|
|----17--17--17--17--17--17--17--17--17--17--17--17-|
|-----------------------------------------------------|
|-----------------------------------------------------|
|-----------------------------------------------------|

gradually get louder

_____|_____________
|

|--14--14--14--14--15--15--15--15--19--19--19--19---|
|----15--15--15--15--17--17--17--17--17--17--17--17-|
|-----------------------------------------------------|
|-----------------------------------------------------|
|-----------------------------------------------------|
|-----------------------------------------------------|
    ______________
                         |
|--19--19--19-------||--------------------------------|
|----17--17---------||-o------------------------------|
|-------------------||---------------------------------|
|-------------------||---0h2-0h2----------------------|
|-------------------||-o---------0---2--0---2-xx--x-0-|
|-------------------||-----------0---2--0---2-xx--x-0-|

|----------------------------------------------------|
|----------------------------------------------------|
|----------------------------------------------------|
|----------------------------------------------------|
|---5---7---xx--x-0---2--0---2-xx--x-0---5---7------|
|---5---7---xx--x-0---2--0---2-xx--x-0---5---7------|

|----------------------------------------------------|
|----------------------------------------------------|
|----------------------------------------------------|
|--0h2-0h2-------------------------------------------|
|----------0---2--0---2-xx-x-0---5---7---xx-x-0---2-|
|----------0---2--0---2-xx-x-0---5---7---xx-x-0---2-|

|-------------------------------2---------2----0----|
|-------------------------------3----1----3----0----|
|-------------------------------2----0----2----0----|
|--------------------------2----0----2----0----2----|
|---0---2-xx-x-0---5---7--2---------3---------2----|
|---0---2-xx-x-0---5---7--2-------------------2----|

|--2---------2---3p2-----------0-------2-------0---|
|--3----1----3-------3------0-------3-------1------|
|--2----0----2---------2----0-------2-------0------|
|--0----2----0--------------2-------0-------2------|
|-------3-------------------2---------------3------|
|---------------------------2----------------------|

|------3p2-----------0---------2---------0-----------||
|---3------3------0-------3---------1---------------o||
|---2--------2----0-------2---------0----------------||
|---0-------------2-------0---------2----------------||
|-----------------2-----------------3--------5----0-o||
|-----------------2--------------------------5----0--||

- I'm not sure about the rest.

Almost there ...

Sign in to get your own page with links to favourite songs and more. You are just one click away...

Login with Facebook Login with Google