Log in

One click and you are in

Login with Facebook Login with Google

Why sign up and log in

Guitar Tabs Explorer
Audioslave bass tabs for Sound of a gun

Bass tabs

Standard Tuning:  E A D G

Legend:
/  =  slide
h=  hammer on
x =  muted note


Intro

| --------------------------------------------0---2---- | ----------------------------- |
| -------0h2-0h2---0---2---0---2---xx-xx---0----------- | --x-x--x-x---0---2---0---2--- |
| --7 \ ----------------------------------------------- | ----------------------------- |
| ----------------------------------------------------- | ----------------------------- |


| ---------------------0---2---------- |
| ------x-x--x-x---0------------------ |	  X  2
| ------------------------------------ |
| ------------------------------------ |


Verse

| ----------------------- | --------------------------- | ----------------------- |
| ---2---2---2---2---0--- | ---2---0---2---2---2---0--- | ----------------------- |
| ----------------------- | --------------------------- | ---3---3---3---3---0--- |
| ----------------------- | --------------------------- | ----------------------- |


| ----------------------- |
| ----------------------- |		  X  3
| ---5---5---5---5---2--- |
| ----------------------- |

| ----------------------- | --------------------------- | ----------------------- |
| ---2---2---2---2---0--- | ---2---0---2---2---2---0--- | ----------------------- |
| ----------------------- | --------------------------- | ---3-------3-3-3-3-3--- |
| ----------------------- | --------------------------- | ----------------------- |


| ----------------------- |
| ------0---------------- |
| ---------------0------- |
| ----------------------- |

Chorus


| --------------------------------------------0---2---- |
| -------0h2-0h2---0---2---0---2---xx-xx---0----------- |		x  3
| --7 \ ----------------------------------------------- |
| ----------------------------------------------------- |


| -------------------------------- | ------------------0---2------ |
| ---x-x--x-x---0---2---0---2----- | ---x-x--x-x---0-------------- |
| -------------------------------- | ----------------------------- |
| -------------------------------- | ----------------------------- |


Verse

--------------------------------------


Chorus

--------------------------------------


Solo

| ------------------------- | ------------------------ | ------------------------- |
| ---2---2-2---2-2-2------- | ------------------------ | ------------------------- |
| ---------------------2--- | --------------------2--- | ---------------------2--- |
| ------------------------- | ---2---2-2---2-2-2------ | ---3---3-3---3-3-3------- |


| ------------------------- |
| ------------------------- |	  x  2
| ---0---0-0---0-0-0---2--- |
| ------------------------- |


Bridge

| ------------------------- | ------------------------- | ---0---0-0---0-0-0------- |
| ---2---2-2---2-2-2------- | ---4---4-4---4-4-4------- | ------------------------- |
| ---------------------2--- | ---------------------2--- | ---------------------2--- |
| ------------------------- | ------------------------- | ------------------------- |


| ---2---2-2---2-2-2 / 4--- | -----9---------(9)------- | --- /11--------(11)------ |
| ------------------------- | --------------------9---- | ---------------------9--- |
| ------------------------- | ------------------------- | ------------------------- |
| ------------------------- | ------------------------- | ------------------------- |


| --- /12--------(12)------ | ------------------------- | ------------------------- |
| ---------------------9--- | ------------------------- | ---2---2-2---2-2-2------- |
| ------------------------- | -------0----------------- | ---------------------2--- |
| ------------------------- | ------------------------- | ------------------------- |


| ------------------------ | ------------------------- | ------------------------- |
| ------------------------ | ---2---2-2---2-2-2------- | ------------------------- |
| --------------------2--- | ---------------------2--- | ---------------------2--- |
| ---2---2-2--2-2-2------- | ------------------------- | ---2---2-2---2-2-2------- |


| ------------------------ | ------------------------- | ------------------------- |
| ---2---2-2--2-2-2------- | ------------------------- | -----2-2-2-2-2-2-2-2----- |
| --------------------2--- | ---------------------2--- | ------------------------- |
| ------------------------ | ---2---2-2---2-2-2------- | ------------------------- |


| ------------------------ | ---0-0-0-0-0-0-0--------- |
| -----4-4-4-4-4-4-4-4---- | ------------------------- |
| ------------------------ | ------------------7 \ --- |
| ------------------------ | ------------------------- |


CHORUS (rest for three measures)

 4th measure of CHORUS

| --------------0---2----- |
| ------------------------ |
| ------7 \ -------------- |
| ------------------------ |

------------------------------


Chorus

------------------------------

Almost there ...

Sign in to get your own page with links to favourite songs and more. You are just one click away...

Login with Facebook Login with Google