Log in

One click and you are in

Login with Facebook Login with Google

Why sign up and log in

Guitar Tabs Explorer
Audioslave bass tabs for Somedays

Bass tabs

Drop d

Intro (faintly in the background)
|---|
|---|
|---|
|-3-|
Verse1
|----------------------1,3|------------------------------2|
|-------------------------|-------------------------------|
|-------------------------|-------------------------------|
|-1-2-3---1-2-3--1-2-3----|-1-2-3---1-2-3--1-2-3--3686363-|

|------------------------4|
|-------------------------|
|-------------------------|
|-1-2-3---1-2-3--1-2-3-/--|


Chorus
|-----------------|x3|-------1---1-----|
|-----313-101-313-| |-----31--31--313-|
|-----------------| |-----------------|
|-3-3-------------| |-3-3-------------|


Verse2
|--------------------1,3,5|------------------------------2|
|-------------------------|-------------------------------|
|-------------------------|-------------------------------|
|-1-2-3---1-2-3--1-2-3----|-1-2-3---1-2-3--1-2-3--3686363-|

|------------------------------4|-------------------------6|
|-------------------------------|--------------------------|
|-------------------------------|--------------------------|
|-1-2-3---1-2-3--1-2-3--9868686-|-1-2-3---1-2-3--1-2-3--/--|


Chorus (cuts off at the end for 8 on the low d string)


Bridge
|-----------------------------------------------------|
|-----------------------------------------------------|
|-----------------------------------------------------|
|-3-/15\--3--9860--3-/15\--3--8--6--1--------8--------|

Short break


Solo
|-----------------|
|-----------------|
|-----------------|
|-3-/15\--3--9860-|

Another short break then,
|----------------|---------------x3|-------1---1-----|
|----------------|-----313-313-313-|-----31--31--313-|
|----------------|-----------------|-----------------|
|-8---6-3---8-10-|-3-3-------------|-3-3-------------|


Chorus (cuts of at the end and ends on 3 (low d))

Almost there ...

Sign in to get your own page with links to favourite songs and more. You are just one click away...

Login with Facebook Login with Google