Log in

One click and you are in

Login with Facebook Login with Google

Why sign up and log in

Guitar Tabs Explorer
Audioslave tabs for Shape of things to come

Intro

dont get mad if this isnt right. its my first tab and im only 11.

tabs by aaron b.

this is what ive got.
Drop A chord diagramD MajorD tuning

||--------------------------------------|
||o-------------------------------------|
||--------------------------------------|
||--------------------------------------|
||o--10-12-12-12--10-12-12-12--10-12--|
||---10-12-12-12--10-12-12-12--10-12--|

|--------------------------------------|
|--------------------------------------|
|--------------------------------------|
|--------------------------------------|
|---7-10-10-10--6-10-10-10--6-10-----|
|---7-10-10-10--6-10-10-10--6-10-----|

|-------------------------------------|
|-------------------------------------|
|-------------------------------------|
|-------------------------------------|
|--5-7-7-7--3-5-5-5--2-3--0-2-2-3-5-0|
|--5-7-7-7--3-5-5-5--2-3--0-2-2-3-5-0|

play this and repeat only once. you're on your own after that.

|--------||
|-------o||
|--------||
|--------||
|10--12-o||
|10--12--||

enjoy!

Other versions of Shape Of Things To Come

Shape of things to come (Ver. 2)Tabs

Almost there ...

Sign in to get your own page with links to favourite songs and more. You are just one click away...

Login with Facebook Login with Google