Log in

One click and you are in

Login with Facebook Login with Google

Why sign up and log in

Guitar Tabs Explorer
Audioslave bass tabs for Set it off

Bass tabs

/ - slide up
\ - slide down
h - hammer on (punch down finger on note without striking string)
+ - play note constantly until next part

Standard tuning: E A D G
Intro:
------

G|----------------|----------------|
D|--------------7-|--------------7-|
A|-----------/9---|-----------/9---|
E|-0-2-0-2--------|-0-2-0-2--------| x3

G|----------------|
D|----------------|
A|-----------/9-7-|
E|-0-2-0-2--------| x1


G|----------------|----------------|
D|--------------7-|--------------7-|
A|-----------/9---|-----------/9---|
E|-0-2-0-2--------|-0-2-0-2--------| x3

G|------------------|
D|------------------|
A|-----------/9-7-0-|
E|-0-2-0-2----------| x1


Verse:
------

G|----------------------------|
D|----------------------------|
A|----------------------------|
E|-2-0-2-x-x-2-0-2--2-0-5-2-0-| x3

G|--------------------|
D|--------------------|
A|---------------/7---|
E|-2-0-2-x-x-2-0----5-| x1


Chorus:
-------

G|----------|-----------|
D|--------7-|-----------|
A|-----/9---|-9-7---7-9-|
E|-2--------|-----9-----| x3

G|------------|
D|------------|
A|-----/9-7-0-|
E|-2----------| x1

(repeat verse, chorus, intro)


Bridge:
-------

G|-----------------|
D|-----------------|
A|-----------------|
E|-2-2---2-2---2-2-| x4

G|------|------|------|------|------------------------|------|-------|
D|------|------|------|------|------------------------|------|-------|
A|------|------|------|------|------------------------|------|-------|
E|-3----|-3----|-5----|-2----|-0--0--0--0--0--0--0--0-|-12---|-\12---|


(repeat chorus, intro...)

Almost there ...

Sign in to get your own page with links to favourite songs and more. You are just one click away...

Login with Facebook Login with Google