Log in

One click and you are in

Login with Facebook Login with Google

Why sign up and log in

Guitar Tabs Explorer
Audioslave bass tabs for Revelations

Bass tabs

Tune Drop D
Bassist: Tim Commerford
Album: Revelations

G|---------------------------------------------------------|x4
D|----------3----------------------------------------------|
A|------3-5---5-0-3-3-3-0-333-3333-------------------------|
D|-0-0-----------------------------3-----------------------|

G|-------------------|x2-----------------------------------|
D|-------------------|-------------------------------------|
A|-3-5-5-0-5-----5---|-3-5-5-0-5-----5---3-3-3-3--7-7-7-7--|
D|-----------000---0-|-----------000---0-------------------|

G|-------------------|x2-----------------------------------|
D|-------------------|-------------------------------------|
A|-3-5-5-0-5-----5---|-3-5-5-0-5-----5---3-3-3-3--7-7-7-7--|
D|-----------000---0-|-----------000---0-------------------|

G|---------------------------------------------------------|x3
D|---------------------------------------------------------|
A|-3-5-5-0-5-----5-----------------------------------------|
D|-----------000---0---------------------------------------|

G|---------------------------------------------------------|
D|---------------------------------------------------------|
A|-3333--7777------------3333-77-5-3-5-555-5---5-----------|
D|------------3333--7777---------------------0---0---------|

G|-------------------------------|-------------------------|x4
D|-------------------------------|-------------------------|
A|-3333--7777------------3333-77-|-555-3-5---5-------------|
D|------------3333--7777---------|---------0---0-----------|

G|---------------------------------------------------------|x2
D|----------3----------------------------------------------|
A|------3-5---5-0-3-3-3-0-333-3333-------------------------|
D|-0-0-----------------------------3-----------------------|

G|-------------------|x2-----------------------------------|
D|-------------------|-------------------------------------|
A|-3-5-5-0-5-----5---|-3-5-5-0-5-----5---3-3-3-3--7-7-7-7--|
D|-----------000---0-|-----------000---0-------------------|

G|-------------------|x2-----------------------------------|
D|-------------------|-------------------------------------|
A|-3-5-5-0-5-----5---|-3-5-5-0-5-----5---3-3-3-3--7-7-7-7--|
D|-----------000---0-|-----------000---0-------------------|

G|---------------------------------------------------------|x3
D|---------------------------------------------------------|
A|-3-5-5-0-5-----5-----------------------------------------|
D|-----------000---0---------------------------------------|

G|---------------------------------------------------------|x2
D|---------------------------------------------------------|
A|-3333--7777------------3333-77-5-3-5-555-3-5---5---------|
D|------------3333--7777-----------------------0---0-------|

Tom Morello's Solo

G|---------------------------------------------------------|
D|---------------------------------------------------------|
A|-3333-7777-8888------3333-77-5-3-555-3-5---5-------------|
D|----------------7777---------------------0---0-----------|

G|--------------------------------------------|------------|x4
D|-3333---------------------------------------|------------|
A|------7777-3333-5555-3333-77-5-3-555-3-5---5|555-3-5---5-|
D|-----------------------------------------0--|--------0---|

G|----------------|x3-----------|------|x5-----------------|
D|----------------|-------------|------|-------------------|
A|----------------|-------------|-5555-|-555-3-5---5-------|
D|-8~--3~--4~--0~-|-8~--3~--11~-|------|---------0---0-----|

G|---------------------------------------------------------|x2
D|---------------------------------------------------------|
A|-3333--7777------------3333-77-5-3-5-555-3-5---5---------|
D|------------3333--7777-----------------------0---0-------|

G|---------------------------------------------------------|
D|---------------------------------------------------------|
A|-3333-7777-8888------3333-77-5-3-555-3-5---5-------------|
D|----------------7777---------------------0---0-----------|

G|---------------------------------|-----------------------|x3
D|---------------------------------|-----------------------|
A|-3333-7777-8888------3333-77-5-3-|-555-3-5---5-----------|
D|----------------7777-------------|---------0---0---------|

Almost there ...

Sign in to get your own page with links to favourite songs and more. You are just one click away...

Login with Facebook Login with Google