Log in

One click and you are in

Login with Facebook Login with Google

Why sign up and log in

Guitar Tabs Explorer
Audioslave bass tabs for Out and the same

Bass tabs

Standart Tunning or DropD
Bassist: Tim Commerford
Album: Revelations

Starts: 0:08

Verse:
G|---------------------------------------------------------|
D|---------------------------------------------------------|
A|-2-2/15-17-14-12-14--14-12-9-12-9-7-9-7-5-7-5-2-0-2------|
D|---------------------------------------------------------|

G|-----------------|x3-------------------------------------|
D|-----------------|---------------------------------------|
A|-2/14-0-2--2-2-0-|-22-55-77-99---------------------------|
D|-----------------|---------------------------------------|

G|-----------------|x3-------------------------------------|
D|-----------------|---------------------------------------|
A|-2/14-0-2--2-2-0-|-22-55-77-99---------------------------|
D|-----------------|---------------------------------------|

G|-----------------|x3-------------------------------------|
D|-----------------|---------------------------------------|
A|-2/14-0-2--2-2-0-|-99-77-55-44---------------------------|
D|-----------------|---------------------------------------|

G|---------------------------------------------------------|x2
D|-------------------------------------2-2020--------------|
A|-222-55555-999-77777-555-99999-555-2--------2------------|
D|---------------------------------------------------------|

G|---------------------------------------------------------|x2
D|---------------------------------------------------------|
A|-2-2/15-17-14-12-14--14-12-9-12-9-7-9-7-5-7-5-2-0-2------|
D|---------------------------------------------------------|

G|-----------------|x3-------------------------------------|
D|-----------------|---------------------------------------|
A|-2/14-0-2--2-2-0-|-22-55-77-99---------------------------|
D|-----------------|---------------------------------------|

G|-----------------|x3-------------------------------------|
D|-----------------|---------------------------------------|
A|-2/14-0-2--2-2-0-|-22-55-7557579-------------------------|
D|-----------------|---------------------------------------|

G|-----------------|x3-------------------------------------|
D|-----------------|-----77-----77-----7-------------------|
A|-2/14-0-2--2-2-0-|-7h9----7h9----7h9---------------------|
D|-----------------|---------------------------------------|

G|---------------------------------------------------------|
D|-------------------------------------2-2020--------------|
A|-222-55555-999-77757-555-99999-555-2--------2------------|
D|---------------------------------------------------------|

G|---------------------------------------------------------|
D|-------------------------------121212---9-9797-----------|
A|-222-55555-999-77757-555-99999--------9--------9-7-9-----|
D|---------------------------------------------------------|

Tom Morello's Solo

G|---------------------------------------------------------|
D|---------------------------------------------------------|
A|-222-55525-999-77757-555-99999-555-2222-0----------------|
D|---------------------------------------------------------|

G|---------------------------------------------------------|
D|-------------------------------------2-2020--------------|
A|-222-55525-999-77757-555-99999-555-2--------0------------|
D|---------------------------------------------------------|

G|---------------------------------------------------------|
D|---------------------------------------------------------|
A|-2-2/15-17-14-12-14--14-12-9-12-9-7-9-7-5-7-5-2-0-2------|
D|---------------------------------------------------------|

G|---------------------------------------------------------|
D|----------------------|Different Rhythm Here|------------|
A|-2-2/15-17-14-12-14--14-12-9-12-9-7-9-7-5-7-5-2-0--------|
D|---------------------------------------------------------|

G|---------------------------------------------------------|
D|---------------------------------------------------------|
A|-2-2/15-17-14-12-14--14-12-9-12-9-7-9-7-5-7-5-2-0-2------|
D|---------------------------------------------------------|

G|---------------------------------------------------------|
D|--------------16-14--14-12-9-12-7-9-7--------------------|
A|-2-2/15-17-14-------------------------9-12-9-7-9-7-5-7-5-|-2~
D|---------------------------------------------------------|

Outro:

G|---------------------------------------------------------|
D|-------------------------------------2-2020--------------|
A|-222-55525-999-77757-555-99999-555-2--------0------------|
D|---------------------------------------------------------|

G|---------------------------------------------------------|
D|-------------------------------121212---9-9797-----------|
A|-222-55555-999-77757-555-99999--------9--------9-7-9-----|
D|---------------------------------------------------------|

G|---------------------------------------------------------|x4
D|---------------------------------------------------------|
A|-2-2/15-17-14-12-14--14-12-9-12-9-7-9-7-5-7-5-2-0-2------|
D|---------------------------------------------------------|


************************************

| /  Slide up
| x  Dead note
| h  Hammer-on

************************************

Almost there ...

Sign in to get your own page with links to favourite songs and more. You are just one click away...

Login with Facebook Login with Google