Log in

One click and you are in

Login with Facebook Login with Google

Why sign up and log in

Guitar Tabs Explorer
Audioslave bass tabs for Original fire

Bass tabs

Tuning: DADG (Drop D)


Intro (when guitar starts)

G||-----------|-----------------------|------|
D||-----------|--12/1414141414141414--|------|
A||--(drums)--|-----------------------|------|
D||-----------|=====x8================|-9--5-|
Verse 1

                      x7   (1,2,3,5,6,7)         (4)
G|---------------------|   |--------|      |-2h3p2-0-2p0|
D|---------------------|   |--------|      |------------|
A|---------------------|   |--------|      |------------|
D|-2--2-2-0-2-/5-2-2-0-|   |-2-0-5--|      |------------|


|---------------------------|
|---------2-5-2-/5-2-/7-----|
|-----2-5-------------------|
|-2-5-------------------9-5-|


Chorus

G|--------------------------------------|
D|*-----------------------------------5-|
A|*-/7-7-/7-7-/7-7-7-/7-7-7-/7-7-/7-5---|
D|--------------------------------------|

|------------------------------------||----|
|-----------------------------------*||----|
|-/7-7-/7-7-/7-7-7-/7-7-7-/7-7------*||----|
|------------------------------9--5--||-2--|


break


Verse 2
                      x7   (1,2,3,5,7)         (4)               (6)
G|---------------------|   |--------|      |------------|     |---------|
D|---------------------|   |--------|      |------------|     |---------|
A|---------------------|   |--------|      |------------|     |-2-5-2---|
D|-2--2-2-0-2-/5-2-2-0-|   |-2-0-5--|      |-/9~--------|     |-------5-|

|---------------------------|
|---------2-5-2-/7-2-/9-----|
|-----2-5-------------------|
|-2-5-------------------9-5-|


Chorus

G|--------------------------------------|
D|*-----------------------------------5-|
A|*-/7-7-/7-7-/7-7-7-/7-7-7-/7-7-/7-5---|
D|--------------------------------------|

|------------------------------------||----|
|-----------------------------------*||----|
|-/7-7-/7-7-/7-7-7-/7-7-7-/7-7------*||-0~-|
|------------------------------9--5--||----|


Bridge

G|--------------------------------------------------------------------------|
D|--------------------------------------------------------------7h8p7-5-7p5-|
A|-------0~-2--5-----2--5--5/777777775/777777775/777777775/7777-------------|
D|-2--5-----------2~--------------------------------------------------------|


Solo

G|----------------------------------------------------------|
D|----------------------------------------------------------|
A|----------------------------------------------------------|
D|-2--2-2-0-2-/5-2-2-0-2-0-5--2--2-2-0-2-/5-2-2-0-5-2-7p5---|

|--------------------------------------------------------|
|--------------------------------------------------------|
|-----------------------------------0-----2--0---2-------|
|-2--2-2-0-2-/5-2-2-0-2-0-5--2-0-2-2---5-2------5---2----|


Bridge 2

G|---------------------------------------------------------------------------------------------------|
D|---------------------------------------------------------------------------------------------------|
A|------------------------------------------------------5/7777777-5/77777777-5/7777777-5/7777--------|
D|-2--2-2-0-2-/5-2-2-0-2-0-5--2--2-2-0-2-/5-2-2-0-2-0-5~---------------------------------------9--5--|

Last Chorus

G|--------------------------------------------------------|
D|--------------------------------------------------------|
A|--------------------------------------------------------|
D|-2--2-2-0-2-/5-2-2-0-2-0-5--2--2-2-0-2-/5-2-2-0-2-0-7p5-|

|--------------------------------------------------------|
|----------------------------------------------------7p5-|
|--------------------------------------------------------|
|-2--2-2-0-2-/5-2-2-0-2-0-5--2--2-2-0-2-/5-2-2-0-/9~-----|

|------------------------------------------------2h3p2-0-2p0-|
|------------------------------------------------------------|
|------------------------------------------------------------|
|-2--2-2-0-2-/5-2-2-0-2-0-5--2--2-2-0-2-/5-2-2-0-------------|

|-----------------------------------------------------------|
|-----------------------------------------------------------|
|-----------------------------------------------------------|
|-2--2-2-0-2-/5-2-2-0-2-0-5--2--2-2-0-2-/5-2-2-0-9--5--2~~~-|

Almost there ...

Sign in to get your own page with links to favourite songs and more. You are just one click away...

Login with Facebook Login with Google