Log in

One click and you are in

Login with Facebook Login with Google

Why sign up and log in

Guitar Tabs Explorer
Audioslave bass tabs for One and the same

Bass tabs with lyrics

ONE AND THE SAME
              As recorded by Audioslave
            (From the 2006 Album REVELATIONS)

Words by Chris Cornell

Music by Audioslave

Gtr I (E A D G B E) - 'Gtr. 1 (dist.)'
Gtr II (E A D G B E) - 'Gtr. 2 (dist.)'
Gtr III (E A D G B E) - 'Gtr. 3 (dist.)'

  Intro
  Moderately Q=112
  4/4
  Gtr I
  E S S E S S S S E E S S  E S S E S S S S E E S S
||--------------------------|--------------------------||
||o-------------x-x---------|-------------x-x---------o||
||--9-----------x-x---------|-9-----------x-x----------||
||--9-9-9-9-9-9-x-x-9-9-9-9-|-9-9-9-9-9-9-x-x-9-9-9-9--||
||o-------------------------|-------------------------o||
||--------------------------|--------------------------||


     ~~~~~~
  E E E E +E E E E  +S S S S E S S E S S S S S S 4x
||--------------------|--------------------------------||
||o-------------------|-------------------------------o||
||--------7-(7)-------|--------------------------------||
||------9-------9-7-9-|-(9)-9-7---7--------------------||
||o---7---------------|---------9---9-7-9-7-5-7-5-----o||
||--7-7---------------|---------------------------7-5--||


  Verse
  Q  S S e e S S S S E  Q  S S e e S S S S E
||------------------------|-----------------------|
||o-----------------------|-----------------------|
||------------------------|-----------------------|
||------------------------|-----------------------|
||o-9\--x-x-7-9-x-9-x-x-7-|-9\--x-x-7-9-x-9-x-x-7-|
||--7\--x-x-5-7-x-7-x-x-5-|-7\--x-x-5-7-x-7-x-x-5-|

 Q  S S e e S S S S S S  S S E E S S E E S S E 3x
|-------------------------|------------------------||
|-------------------------|-----------------------o||
|-------------------------|---------------------7--||
|-------------------------|-----7-7-----7-7-----7--||
|-9\--x-x-7-9-x-9-x-x-x-x-|-7h9-----7h9-----7h9---o||
|-7\--x-x-5-7-x-7-x-x-x-x-|------------------------||


  Chorus
  E S S E S S S S E E S S  E S S E S S S S E E S S 4x
||--------------------------|--------------------------||
||o-------------x-x---------|-------------x-x---------o||
||--9-----------x-x---------|-9-----------x-x----------||
||--9-9-9-9-9-9-x-x-9-9-9-9-|-9-9-9-9-9-9-x-x-9-9-9-9--||
||o-------------------------|-------------------------o||
||--------------------------|--------------------------||


  Interlude
     ~~~~~~
  E E E E +E E E E  +S S S S E S S E S S S S S S
||--------------------|--------------------------------||
||o-------------------|-------------------------------o||
||--------7-(7)-------|--------------------------------||
||------9-------9-7-9-|-(9)-9-7---7--------------------||
||o---7---------------|---------9---9-7-9-7-5-7-5-----o||
||--7-7---------------|---------------------------7-5--||


  Verse 2
  Q  S S e e S S S S E  Q  S S e e S S S S E
||------------------------|-----------------------|
||o-----------------------|-----------------------|
||------------------------|-----------------------|
||------------------------|-----------------------|
||o-9\--x-x-7-9-x-9-x-x-7-|-9\--x-x-7-9-x-9-x-x-7-|
||--7\--x-x-5-7-x-7-x-x-5-|-7\--x-x-5-7-x-7-x-x-5-|


 Q  S S e e S S S S S S  S S E E S S E E S S E 3x
|-------------------------|------------------------||
|-------------------------|-----------------------o||
|-------------------------|---------------------7--||
|-------------------------|-----7-7-----7-7-----7--||
|-9\--x-x-7-9-x-9-x-x-x-x-|-7h9-----7h9-----7h9---o||
|-7\--x-x-5-7-x-7-x-x-x-x-|------------------------||


  Chorus
  E S S E S S S S E E S S  E S S E S S S S E E S S 4x
||--------------------------|--------------------------||
||o-------------x-x---------|-------------x-x---------o||
||--9-----------x-x---------|-9-----------x-x----------||
||--9-9-9-9-9-9-x-x-9-9-9-9-|-9-9-9-9-9-9-x-x-9-9-9-9--||
||o-------------------------|-------------------------o||
||--------------------------|--------------------------||


 Guitar Solo
 Gtr II
  |---6---| |---6---| |---6---| |-3-|
  S S S S E S S S S E S S S S E S S S S S
|-/7-7-7-7-7----------------------------------|
|------------/7-7-7-7-7-----------------------|
|-----------------------/7-7-7-7-7--------x-x-|
|----------------------------------/9-9-9-x-x-|
|---------------------------------------------|
|---------------------------------------------|


  |---6---| |---6---| |---6---| |-3-|
  S S S S E S S S S E S S S S E S S S E
|-/7-7-7-7-7---------------------------------|
|------------/7-7-7-7-7----------------------|
|-----------------------/7-7-7-7-7-----------|
|----------------------------------/9-9-9-9--|
|--------------------------------------------|
|--------------------------------------------|


  |----6----| |-----6-----| |------6------| |-----6------|
  S S S S S S S S S S S S S S S S S S S S S S S S
|-/7-7-7-7S6S5S10-10-10S9S7S5S10-10-10-10-10S5S12-12-12-12S5-5S|
|--------------------------------------------------------------|
|--------------------------------------------------------------|
|--------------------------------------------------------------|
|--------------------------------------------------------------|
|--------------------------------------------------------------|


         ~~
 E S S +S  S E +E  S S S S S S
|-9-10-9-(9)---------------10-12p10-------|
|------------10-12-(12)-12----------12-10-|
|-----------------------------------------|
|-----------------------------------------|
|-----------------------------------------|
|-----------------------------------------|


  E E S S S S S S  E E S S   E E S S S S S S  E E S S
|-/14-10------10------------------|------------10------------------|
|-----10-10--------9---/12-10-----|-/10---10--------9---/12-10-----|
|---------------------------------|--------------------------------|
|-----------0----0---0--------0-0-|-----0----0----0---0--------0-0-|
|---------------------------------|--------------------------------|
|---------------------------------|--------------------------------|


 Gtr II
  S S S S E   E   E S S E S S
|----10-------12b15-12b15-10----------------|
|-12----12-10----------------12-10-12-12-10-|
|-------------------------------------------|
|-------------------------------------------|
|-------------------------------------------|
|-------------------------------------------|
|
| Gtr III
| S S S S E   E   E S S E S S
|----10-------12b15-12b15-10----------------|
|-12----12-10----------------12p10-12-12p10-|
|-------------------------------------------|
|-------------------------------------------|
|-------------------------------------------|
|-------------------------------------------|


  S S S S E   E   e S S +E  S S
|----10-------12b14-12b14-12----------------10-|
|-12----12-10----------------14p12-(12)--10----|
|----------------------------------------------|
|----------------------------------------------|
|----------------------------------------------|
|----------------------------------------------|
|
| S S S S E   E   e S S  Q
|----10-------12b14-12b14-12-10----------------|
|-12----12-10-------------------12-(12)\-------|
|----------------------------------------------|
|----------------------------------------------|
|----------------------------------------------|
|----------------------------------------------|


 Gtr II
  |------6-------| |------6-------| |------6-------| |------6-------|
  S S S S S S S S S S S S S S S S S S S S S S S S
|-14-12-10----------14-12-10----------14-12-10----------14-12-10----------|
|----------14-12-10----------14-12-10----------14-12-10----------14-12-10-|
|-------------------------------------------------------------------------|
|-------------------------------------------------------------------------|
|-------------------------------------------------------------------------|
|-------------------------------------------------------------------------|


  |------6-------| |------6-------| |------6-------| |------6-------|
  S S S S S S S S S S S S S S S S S S S S S S S S
|-14-12-10----------14-12-10----------14-12-10----------14-12-10-----------|
|----------14-12-10----------14-12-10----------14-12-10----------14-12-10--|
|--------------------------------------------------------------------------|
|--------------------------------------------------------------------------|
|--------------------------------------------------------------------------|
|--------------------------------------------------------------------------|


  |------6-------| |------6-------| |------6-------| |------6-------|
  S S S S S S S S S S S S S S S S S S S S S S S S
|-15-14-12----------15-14-12----------15-14-12----------15-14-12----------|
|----------15-14-12----------15-14-12----------15-14-12----------15-14-12-|
|-------------------------------------------------------------------------|
|-------------------------------------------------------------------------|
|-------------------------------------------------------------------------|
|-------------------------------------------------------------------------|


  |------6-------| |------6-------| |------6-------| |------6-------|
  S S S S S S S S S S S S S S S S S S S S S S S S
|-15-14-12----------15-14-12----------15-14-12----------15-14-12-----------|
|----------15-14-12----------15-14-12----------15-14-12----------15-14-12--|
|--------------------------------------------------------------------------|
|--------------------------------------------------------------------------|
|--------------------------------------------------------------------------|
|--------------------------------------------------------------------------|


  |------6-------| |------6-------| |------6-------| |------6-------|
  S S S S S S S S S S S S S S S S S S S S S S S S
|-17-15-14----------17-15-14----------17-15-14----------17-15-14----------|
|----------17-15-14----------17-15-14----------17-15-14----------17-15-14-|
|-------------------------------------------------------------------------|
|-------------------------------------------------------------------------|
|-------------------------------------------------------------------------|
|-------------------------------------------------------------------------|


  |------6-------| |------6-------| |------6-------| |3-|
  S S S S S S S S S S S S S S S S S S S E  E
|-17-15-14----------17-15-14----------17-15-14----------17-17\-----|
|----------17-15-14----------17-15-14----------17-15-14--------14/-|
|------------------------------------------------------------------|
|------------------------------------------------------------------|
|------------------------------------------------------------------|
|------------------------------------------------------------------|


  E S   S S S S E   S  s +S  S S S S
|-22-22b23-22-22-22---22b25r(22)-22-(22)-22-22---22-|
|---------------------------------------------------|
|---------------------------------------------------|
|---------------------------------------------------|
|---------------------------------------------------|
|---------------------------------------------------|


  +S    S  e S S S S +E   e S S E
|-(22)b25r(22)-22-22-22---22-(22)b25-22-22-22---||
|-----------------------------------------------||
|-----------------------------------------------||
|-----------------------------------------------||
|-----------------------------------------------||
|-----------------------------------------------||


  Chorus
  W     W     W     W
||-----------|----------|----------|-------||
||o----------|----------|----------|------o||
||-----------|----------|----------|-------||
||-----------|----------|----------|-------||
||o----------|----------|----------|------o||
||-----------|----------|----------|-------||


  E S S E S S S S E E S S  E S S E S S S S E E S S
||--------------------------|--------------------------||
||o-------------x-x---------|-------------x-x---------o||
||--9-----------x-x---------|-9-----------x-x----------||
||--9-9-9-9-9-9-x-x-9-9-9-9-|-9-9-9-9-9-9-x-x-9-9-9-9--||
||o-------------------------|-------------------------o||
||--------------------------|--------------------------||


  Outro
     ~~~~~~
  E E E E +E E E E  +S S S S E S S E S S S S S S 3x
||--------------------|--------------------------------||
||o-------------------|-------------------------------o||
||--------7-(7)-------|--------------------------------||
||------9-------9-7-9-|-(9)-9-7---7--------------------||
||o---7---------------|---------9---9-7-9-7-5-7-5-----o||
||--7-7---------------|---------------------------7-5--||


    ~~~~~~
 E E E E +E E E E  +S S S S E S S E S S S S S S  Q +Q  H
|-------------------|-------------------------------|---------------*|
|-------------------|-------------------------------|---------------*|
|-------7-(7)-------|-------------------------------|-7--(7)\-------*|
|-----9-------9-7-9-|-(9)-9-7---7-------------------|-7--(7)\-------*|
|---7---------------|---------9---9-7-9-7-5-7-5-0-0-|-x-------------*|
|-7-7---------------|---------------------------0-0-|-7--(7)\-------*|


Duration Legend
---------------
W - whole; H - half; Q - quarter; E - 8th; S - 16th; T - 32nd; X - 64th; a - acciaccatura
+ - note tied to previous; . - note dotted; .. - note double dotted
Uncapitalized letters represent notes that are staccato (1/2 duration)
Irregular groupings are notated above the duration line
Duration letters will always appear directly above the note/fret number it represents the
duration for. Duration letters with no fret number below them represent rests. Multi-
bar rests are notated in the form Wxn, where n is the number of bars to rest for. Low
melody durations appear below the staff

Tablature Legend
----------------
 h  - hammer-on
 p  - pull-off
 b  - bend
 pb - pre-bend
 r  - bend release (if no number after the r, then release immediately)
 /\ - slide into or out of (from/to "nowhere")
 s  - legato slide
 S  - shift slide
<n> - natural harmonic
n: - artificial harmonic
n(n) - tapped harmonic
 ~  - vibrato
 tr - trill
 T  - tap
 TP - trem. picking
 PM - palm muting
\n/ - tremolo bar dip; n = amount to dip
 \n - tremolo bar down
 n/ - tremolo bar up
/n\ - tremolo bar inverted dip
 =  - hold bend; also acts as connecting device for hammers/pulls
 <> - volume swell (louder/softer)
 x  - on rhythm slash represents muted slash
 o  - on rhythm slash represents single note slash

Misc Legend
-----------
 | - bar
|| - double bar
||o - repeat start
o|| - repeat end
*| - double bar (ending)
 : - bar (freetime)
 $ - Segno
 & - Coda
Tempo markers - <E/E./Q/Q./H/H.> = BPM(8/16=s8/s16), where s8 = swing 8ths, s16 = swing 16ths


***************
* Generated using Power Tab Editor by Brad Larsen - http://powertab.guitarnetwork.org *
***************

Almost there ...

Sign in to get your own page with links to favourite songs and more. You are just one click away...

Login with Facebook Login with Google