Log in

One click and you are in

Login with Facebook Login with Google

Why sign up and log in

Guitar Tabs Explorer
Audioslave bass tabs for Nothing left to say but goodbye

Nothing Left To Say But Goodbye bass tab by Audioslave

Audioslave bass tabs for Nothing left to say but goodbye

Bass tabs

Audioslave - Nothing left to say but goodbye
Drop D


Verse 1
|-----------------------------(x3)|---------------------------------|
|---------------------------------|---------------------------------|
|-5-5-5-5-3-3-3-3-1-1-1-1---------|-5-5-5-5/8-8-8-8-----------------|
|-------------------------5-5-5-5-|-----------------8-8-8-8-5-5-5-5-|
Chorus 1
|------------------------------------------------------------------|
|-------------3-----------------------------------------------7----|
|-1-1-1-1-1-1---1-----------------1-1-1-1-1-1-1-3-5-5-5-5-5-5---5--|
|-----------------3-3-3-3-7-7-7-7----------------------------------|

-----------------------------------------------|
-----------------------------------------------|
------------------4-4-4-4-4-4-3-4--------------|
--5-5-5-5-5-5-5-5-----------------3-3-2-3-7--7-|


Verse 2
|---------------------------------------------------------------|
|---------------------------------------------------------------|
|-5-5-5-5-3-3-3-3-1-------------3-5-5-5-5-3-3-3-3-1-----1--11-3-|
|-------------------5-3-5-5-5-5---------------------5-3---------|

------------------------------------------------------------------------|
------------------------------------------------------------------------|
--5-5-5-5/8-8-8-8-/10-8-5-1--11-3-5-5-5-5/8-8-8-8-/10-8-5-/10-/12-10810-|
------------------------------------------------------------------------|


Chorus 2
|-------3--------------------------------------------------------|
|-----3---3--------------------------------------------------7---|
|-1-1------1---1-----------------1-1-1-1-1-0-1-3-5-5-5-5-5-5---5-|
|------------3---3-3-3-3/7-7-7-7---------------------------------|

-----------------------------------------------|
-----------------------------------------------|
------------------4-4-4-4-4-4-3-4--------------|
--5-5-5-5-5-5-5-5-----------------3-3-2-3-7--7-|


Bridge
|-----------------------------------------------------------------------------|
|---------535--53------------------------535--53------------------------------|
|----------------5-5-5-5-3-3-3-3-----------------1-1-1-1/5-5-5-5-/12-12-12-12-|
|-5-5-5-5------------------------5-5-5-5--------------------------------------|

-------------------------------------------|
-------------------------------------------|
------------------/12-12-12-12-12-12-12-12-|
--7-7-7-7-7-7-7-7--------------------------|


Verse 3

Break
|-------------------------------------------------------------------|
|-------------------------------------------------------------------|
|-5-5-5-5/8-8-8-8/10-8-5-1--11-3-5-5-5-5/8-8-8-8/10-8-5-/10-/12--10-|
|-------------------------------------------------------------------|


Chorus 2

Outro
|---------------------------------------------------------|
|---------------------------------------------------------|
|---------------------6-5-0-0-0-0-0-0-1-1-2-2-2-2-1-1-1-1-|
|-0--2-3-/8-7--5--7-8-------------------------------------|

Almost there ...

Sign in to get your own page with links to favourite songs and more. You are just one click away...

Login with Facebook Login with Google