Log in

One click and you are in

Login with Facebook Login with Google

Why sign up and log in

Guitar Tabs Explorer
Audioslave bass tabs for Moth

Bass tabs

Verse:Fade In
|-----------------------------------------------------------------|
|-----------------------------------------------------------------|
|-----------535/8-885---------------------------------------------|
|-4~-434-5~-----------878~-87\34~-4345~-5450~---------------------|
Chorus:
|-----------------------------------------------------------------|
|-----------------------------------------------------------------|
|-5-----0-5-----0-5-----0-5-----0-5-------5-------5-----0-5-----0-|
|---0-35----0-35----0-35----0-35----0-353---0-353---0-35----0-35--|

|-----------------------------------------------------------------|
|-----------------------------------------------------------------|
|-5-----0-5-----0-5-----0-5-----0-5-----0-5-----0-5-----0-5~------|
|---0-35----0-35----0-35----0-35----0-35----0-35----0-35----------|


Verse:
|-----------------------------------------------------------------|
|-----------------------------------------------------------------|
|5------------------535/8~-885------------------------------------|
|-878~-87\34~-4345~-----------878~-87\34~-4345~-5450~-------------|

|-----------------------------------------------------------------|
|-----------------------------------------------------------------|
|5------------------535/8~-885------------------0~----------------|
|-878~-87\34~-4345~-----------878~-87\34~-4345~----0~-------------|

|-----------------------------------------------------------------|
|-----------------------------------------------------------------|
|-0300-0300/5~----0~----0300-0300/5~------------------------------|
|--------------5~----0~-------------------------------------------|

Chorus:
|-----------------------------------------------------------------|
|-----------------------------------------------------------------|
|-5-----0-5-----0-5-----0-5-----0-5-------5-------5-----0-5-----0-|
|---0-35----0-35----0-35----0-35----0-353---0-353---0-35----0-35--|

|-----------------------------------------------------------------|
|-----------------------------------------------------------------|
|-5-----0-5-----0-5-----0-5-----0-5-----0-5-----0-5-----0-5~------|
|---0-35----0-35----0-35----0-35----0-35----0-35----0-35----------|


Verse:
|-----------------------------------------------------------------|
|-----------------------------------------------------------------|
|5------------------535/8~-885------------------------------------|
|-878~-87\34~-4345~-----------878~-87\34~-4345~-5450~-------------|

|-----------------------------------------------------------------|
|-----------------------------------------------------------------|
|5------------------535/8~-885------------------0~----------------|
|-878~-87\34~-4345~-----------878~-87\34~-4345~----0~-------------|

|-----------------------------------------------------------------|
|-----------------------------------------------------------------|
|-0300-0300/5~----0~----0300-0300/5~------------------------------|
|--------------5~----0~-------------------------------------------|


Chorus:
|-----------------------------------------------------------------|
|-----------------------------------------------------------------|
|-5-----0-5-----0-5-----0-5-----0-5-------5-------5-----0-5-----0-|
|---0-35----0-35----0-35----0-35----0-353---0-353---0-35----0-35--|

|-----------------------------------------------------------------|
|-----------------------------------------------------------------|
|-5-----0-5-----0-5-----0-5-----0-5-----0-5-----0-----------------|
|---0-35----0-35----0-35----0-35----0-35----0-35------------------|


Bridge:
|-----------------------------------------------------------------|
|-33------------------------3-------------------------------------|
|---5-535------3-0-----------5-535------3-0-----------------------|
|---------0~-0-----0-5-3-0~--------0~-0-----0-5-3-0---------------|

Alt Verse:
|-----3~-32-----------------7\323~-32-----------------------------|
|----------34~-4345~-545/7~----------34~-4345~-5450~--------------|
|-----------------------------------------------------------------|
|-----------------------------------------------------------------|

|-7\323~-32-----------------7\323~-32-----------------------------|
|----------34~-4345~-545/7~----------34~-4345~-5450~--------------|
|-----------------------------------------------------------------|
|-----------------------------------------------------------------|


Verse:
|-----------------------------------------------------------------|
|-----------------------------------------------------------------|
|5------------------535/8~-885------------------------------------|
|-878~-87\34~-4345~-----------878~-87\34~-4345~-5450~-------------|

|-----------------------------------------------------------------|
|-----------------------------------------------------------------|
|5------------------535/8~-885------------------------------------|
|-878~-87\34~-4345~-----------878~-87\34~-4345~-5450~-------------|


Chorus:
|-----------------------------------------------------------------|
|-----------------------------------------------------------------|
|-5-----0-5-----0-5-----0-5-----0-5-------5-------5-----0-5-----0-|
|---0-35----0-35----0-35----0-35----0-353---0-353---0-35----0-35--|

|-----------------------------------------------------------------|
|-----------------------------------------------------------------|
|-5-----0-5-----0-5-----0-5-----0-5-----0-5-----0-----------------|
|---0-35----0-35----0-35----0-35----0-35----0-35------------------|


Bridge:
|-----------------------------------------------------------------|
|--3------------------------3-------------------------------------|
|---5-535------3-0-----------5-535------3-0-----------------------| Repeat &
|---------0~-0-----0-5-3-0~--------0~-0-----0-5-3-0---------------| Fade

Almost there ...

Sign in to get your own page with links to favourite songs and more. You are just one click away...

Login with Facebook Login with Google