Log in

One click and you are in

Login with Facebook Login with Google

Why sign up and log in

Guitar Tabs Explorer
Audioslave guitar tabs for Like a stone

Guitar tabs

Like a Stone by Audioslave


Notes: During the second chorus, the last chord repeats a couple times
while Chris repeats ¨alone¨, which i didn’t bother to tab. The song ends
on [6688xx].

Verse---w/slight delay ( )
----------------------------------|
----------------------------------|
G-----------------------8--6-----
D-8----10---------7-------------
A---10-----8---5----6-----------
E---------------------------------


Chorus (distortion and slight delay)

------------------------------------------------------------------------------
------------------------------------------------------------------------------
--------3---------------------------3-----------------------------------------
-5------3------3------5------5------3------3------5---------------------------
-5------1------3------5------5------1------3------5---------------------------
-3------1------1------3------3------1------1------3---------------------------


------------------------------------------------------------------------------
------------------------------------------------------------------------------
-8---------------------------8---------------------------7------7-------------
-8------5------3------5------8------5------3------5------7------7-------------
-6------5------3------5------6------5------3------5------5------5-------------
-6------3------1------3------6------3------1------3------5------5-------------



Solo (w/whammy set to one octave up and delay set to quarter note)
Listen to the song to figure out how/when to usewhammy
-3----5-6------8--6--5-3------3-----5-1-------6---8---10-
---------------------------------------------------------
---------------------------------------------------------
---------------------------------------------------------
---------------------------------------------------------
---------------------------------------------------------

-18-17-------18-17-------18-17-------18-17---------
-------18----------18----------18----------18------
----------19----------19----------19----------19---
---------------------------------------------------
---------------------------------------------------
---------------------------------------------------

---------------------------------------------------
---------------------------------------------------
---------------------------------------------------
--5--7--8--10--12--13--15--17--19--20--19--20--19--
---------------------------------------------------
--3--5--6--8---10--11--13--15--17--18--17--18--17--


bridge:
Eb|  Bb|  D7|  Eb| | |  Ebm|  C7|  D7|  A chord diagramG minorGm
|
Eb|  Bb|  D7|  Eb| | |  Ebm|  C7|  A chord diagramD MajorD


-------6-----5-----6------6----------3--------6-------------
-8-----6-----7-----8------7----------4--------6-------------
-8-----7-----5-----6------6----------5--------6-------5-----
-8-----8-----7-----8------8----------5--------8-------5-----
-6-----8-----5-----6------6----------3--------8-------3-----
-------6------------------6----------3--------6-------------
A chord diagramEb MajorEb    A chord diagramBb majorBb    A chord diagramD7D7    A chord diagramEb7Eb7    Ebm7/Bb    Cm/G     A chord diagramBbmBbm
A chord diagramD5D5

Other versions of Like A Stone

Like a stoneChords
Like a stone (Ver. 2)Chords
Like a stone (Ver. 3)Chords
Like a stone acousticChords
Like a stone acousticTabs

Almost there ...

Sign in to get your own page with links to favourite songs and more. You are just one click away...

Login with Facebook Login with Google