Search tabs and chords

Search for song, artist or band

Log in

One click and you are in

Login with Facebook Login with Google

Why sign up and log in

Guitar Tabs Explorer
Audioslave guitar chords for Like a stone (Ver. 2)

Guitar chords with lyrics

Difficulty: Novice

Intro / Verse:

     Gm chord diagramGmGm         F chord diagramFF          Dm chord diagramDmDm         D#7 chord diagramD#7D#7
E|----------|----------|----------|----------------|
B|----------|----------|----------|----------------|
G|----------|----------|----------|----------------|
D|----------|----------|----------|------13-13-12--|
A|-13~------|-15~------|------12~-|----------------|
E|------15~-|------13~-|-10~------|-11~------------|
     Gm chord diagramGmGm      F chord diagramFF            Dm chord diagramDmDm
On a cobweb afternoon in a room
        D#7 chord diagramD#7D#7
full of emptiness
       Gm chord diagramGmGm    F chord diagramFF
By a freeway I confess
   Dm chord diagramDmDm              D#7 chord diagramD#7D#7
I was lost in the pages
Gm chord diagramGmGm         F chord diagramFF
Of a book, full of death
Dm chord diagramDmDm                 D#7 chord diagramD#7D#7
Reading how we'll die alone
    Gm chord diagramGmGm                   F chord diagramFF
And if we're good we'll lay to rest
Dm chord diagramDmDm           D#7 chord diagramD#7D#7
Anywhere we want to go
Chorus:
Parte 1:

     Gm chord diagramGmGm A# chord diagramA#A# F chord diagramFF  Gm chord diagramGmGm
E|------------|
B|------------|
G|------------|
D|-5--8--3--5-|
A|-5--8--3--5-|
E|-3--6--1--3-|

Parte 2:
      D# chord diagramD#D# Gm chord diagramGmGm F chord diagramFF  Gm chord diagramGmGm D# chord diagramD#D# Gm chord diagramGmGm D chord diagramDD  D chord diagramDD
E|------------------------|
B|------------------------|
G|-8-----------8-----7--7-|
D|-8- 5--3--5--8--5--7--7-|
A|-6--5--3--5--6--5--5--5-|
E|----3--1--3-----3-------|

(Parte 1)
  Gm chord diagramGmGm       A# chord diagramA#A#      F chord diagramFF      Gm chord diagramGmGm
  In your house I long to be
  Gm chord diagramGmGm       A# chord diagramA#A#    F chord diagramFF    Gm chord diagramGmGm
  Room by room patiently

(Parte 2)
       D# chord diagramD#D#            Gm chord diagramGmGm
  I'll wait for you there
   F chord diagramFF      Gm chord diagramGmGm
  Like a stone
       D# chord diagramD#D#            Gm chord diagramGmGm
  I'll wait for you there
  D chord diagramDD   D chord diagramDD
  Alone

Verse:
         Gm chord diagramGmGm       F chord diagramFF
  On my deathbed, I will pray
     Dm chord diagramDmDm               D#7 chord diagramD#7D#7
  To the gods and the angels
          Gm chord diagramGmGm      F chord diagramFF
  Like a pagan to anyone
  Dm chord diagramDmDm                   D#7 chord diagramD#7D#7
  Who will take me to heaven
        Gm chord diagramGmGm    F chord diagramFF
  To a place, I recall
  Dm chord diagramDmDm              D#7 chord diagramD#7D#7
  I was there so long ago
      Gm chord diagramGmGm
  The sky was bruised
      F chord diagramFF
  The wine was bled
      Dm chord diagramDmDm               D#7 chord diagramD#7D#7
  And there you led me on

(Chorus)
Solo: (A chord diagramAA primeira parte do solo é feito com o pedal Whammy da Digitech)


E|------------------------------------------------------------------|
B|------------------------------------------------------------------|
G|------------------------------------------------------------------|
D|------------------------------------------------------/15-/17-----|
A|--------------/15-----------------------------/15-/17-------------|
E|-/15-/17-/18~-----/18-/17-/15~~--/15-/17-/13~---------------------|


  H chord diagramHH.A...................................

E|----------------------------------------|
B|----------------------------------------|
G|-15-15-15--14-14-14---------------------|   (4x)
D|---------------------15-15-15-----------|
A|------------------------------17-17-17--|
E|----------------------------------------|


(essa parte é feita com o pedal de Wah-Wah)

E|-------------------------------------------------|
B|-------------------------------------------------|
G|-~-----------------------------------------------|
D|-------------------------------------------------|
A|-------------------------------------------------|
E|-3~-5~-6~-8~-10~-11~-13~-15~-17~-18~-17~-18~-17~-|


Bridge:
  D# chord diagramD#D#             A# chord diagramA#A#
  And on I read
  D7 chord diagramD7D7                 D# chord diagramD#D#
  Until the day was gone
        D#m chord diagramD#mD#m          C7 chord diagramC7C7
  And I sat in regret
     D7 chord diagramD7D7                  Gm chord diagramGmGm
  Of all the things I've done
      D# chord diagramD#D#              A# chord diagramA#A#
  For all that I've blessed
      D7 chord diagramD7D7              D# chord diagramD#D#
  And all that I've wronged
       D#m chord diagramD#mD#m            C7 chord diagramC7C7
  In dreams until my death
          D7 chord diagramD7D7        Gm chord diagramGmGm
  I will wander on

Other versions of Like A Stone

Like a stoneChords
Like a stone acousticChords
Like a stoneTabs
Like a stone acousticTabs

Almost there ...

Sign in to get your own page with links to favourite songs and more. You are just one click away...

Login with Facebook Login with Google