Log in

One click and you are in

Login with Facebook Login with Google

Why sign up and log in

Guitar Tabs Explorer
Audioslave bass tabs for Like a rolling stone

Bass tabs

BAND: AUDIOSLAVE
ALBUM:AUDIOSLAVE
TRACK: 5
BASS PLAYER: TIM COMMERFORD

TUNING: E,A,D,G

/= Slide Up
= Slide Down
h= hammer
~= Let Ring
Intro x5
G|-------------------------------------------|
D|-----------------------------------3-------|
A|----5h3-------5h3-------5h3-----------5----|
E|-3---------3---------3---------3-----------|


Chorus:
G|-------------------|----------------------|
D|----------3--------|------------3--7/5---|
A|-------------------|----------------------|
E|-3---5-6-----6-3---|--3---5-6-------------|

G|-----------------------|
D|-----------------------|
A|-6-------8-------6-----|
E|---6-3------6-3----6-3-|


Bridge 1:
G|--------------------|
D|--------------------|
A|-5-------5----------|
E|----0000----0000----|

Intro (x5)


Chorus:
G|-------------------|----------------------|
D|----------3--------|------------3--7/5---|
A|-------------------|----------------------|
E|-3---5-6-----6-3---|--3---5-6-------------|


G|----------------------|
D|----------------------|
A|-6------8------6------|
E|---6-3-----6-3----6-3-|


Bridge 2:
G|-------------------------|
D|-------------------------|
A|-5-------5~---5-------5~-|
E|----0000---------0000----|

Play During the Solo
G|-------------------|--------------------------|
D|----------3--------|------------3---7/5-5555-|
A|-------------------|--------------------------|
E|-3---5-6-----6-3---|--3---5-6-----------------|

During The Solo It Might Go Like This But Im Not Sure
G|-------------------------|-----------------------------|
D|--------------3----------|--------------3---7/5-5555--|
A|-------------------------|-----------------------------|
E|-3---5-6-666-----6-3-333-|--3---5-6-666----------------|


G|-------------------|-------------------|-------------------|
D|-------------------|-------------------|-------------------|
A|-66666666----------|-88888888----------|-66666666----------|
E|----------33333333-|----------33333333-|----------33333333-|

G|-------------------|
D|-------------------|
A|-55555555----------|
E|----------0~-------|

Rest for 8 Measures after the solo then play (During Acoustic Part)
G|-------------------------------------------------------------|
D|-------------------------------------------------------------|
A|-6~---------------------------6~-----------------------------|
E|---------8~-----6~-----8~-------------8~---00000000000000000-|


Chorus:
G|-------------------|----------------------|
D|----------3--------|------------3--7/5---|
A|-------------------|----------------------|
E|-3---5-6-----6-3---|--3---5-6-------------|


G|-----------------------|
D|-----------------------|
A|-6-------8-------6-----|
E|---6-3------6-3----6-3-|


Bridge 2:
G|-------------------------|
D|-------------------------|
A|-5-------5~---5-------5~-|
E|----0000---------0000----|

End
G|---------|
D|---------|
A|--6~-----|
E|---------|

If you liked my tab check out:
Audioslave - Set It Off
Rage Against The Machine - Bullet In The Head

Almost there ...

Sign in to get your own page with links to favourite songs and more. You are just one click away...

Login with Facebook Login with Google