Log in

One click and you are in

Login with Facebook Login with Google

Why sign up and log in

Guitar Tabs Explorer
Audioslave bass tabs for Kochise

Bass tabs

G|--------------------------------------------------------------|
D|--------------------------------------------------------------|
A|--7-5--5--------7-5--------7-5--5---------7-5-----------------|
E|------7--7-3-0-----7-3-0----------7--7-3-0----7-3-0-----------|


G|----------------------------------------------------------------|
D|----------------------------------------------------------------|
A|--7-7-------------------5--7-7----------------------------------|
E|------5--3--0---3--5--7--------5--3--0----3--5-7----------------|

G|----------------------------2---2-----2---2---------------|
D|-----2---2-----2---2--------------------------------------|
A|-------------------------0---0-----0---0------------------|
E|--0---0-----0---0-----------------------------------------|

Almost there ...

Sign in to get your own page with links to favourite songs and more. You are just one click away...

Login with Facebook Login with Google