Log in

One click and you are in

Login with Facebook Login with Google

Why sign up and log in

Guitar Tabs Explorer
Audioslave bass tabs for Jewel of the summertime

Jewel Of The Summertime bass tab by Audioslave

Audioslave bass tabs for Jewel of the summertime

Bass tabs with lyrics

This is off their new album "Revelations" it’s quite easy. It
may not sound like the real version because you will need to
adjust your amplifier. Adjust the "LOW" knob an octave lower
and the "MID-LOW" if you have a stack. If you are unbeknownst
to dead notes: just place your finger on the fret without
pressing down and that’s a dead note. I figured this out all
by my self so cut me some slack.

X=Dead note
/=Slide

Opening play 8 times

E:--0--X-X-2-3-----------------------------
A:---------------4/9-9-9-9-9-9-------------
D:-----------(slide really fast)-----------
G:-----------------------------------------
Verse play 2 times

E:--0--X-X-2-3---------------------------
A:-----------------9/4-------------------
D:---------------------------------------
G:---------------------------------------

E:--0--X-X-2-3-----------------------------
A:---------------4/9-9-9-9-9-9-------------
D:-----------(slide really fast)-----------
G:-----------------------------------------


Chorus

E:-0-5-3--5-5-5-5----0-7-5--7-7-7-7------
A:---------------------------------------
D:---------------------------------------
G:---------------------------------------

E:---------------------------------------
A:-0-3-5--5-5-5-5------7-5--7-7----------
D:-------------------0-------------------
G:---------------------------------------

E:-0-5-3--5-5-5-5----0-7-5--7-7-7-7----0-2-3-
A:-------------------------------------------
D:-------------------------------------------
G:-------------------------------------------

then start over. That’s pretty much the whole song.
                -TGuns

Almost there ...

Sign in to get your own page with links to favourite songs and more. You are just one click away...

Login with Facebook Login with Google