Log in

One click and you are in

Login with Facebook Login with Google

Why sign up and log in

Guitar Tabs Explorer
Audioslave bass tabs for I am the highway

Bass tabs with lyrics

Tuning: standard

Chords: Am, F, C, G, Dm ,E


INTRO
(guitar 1)
        A
e|-------------0----------0-----|
B|-------------1----------1-----|
G|-------------2----------2-----|
D|-------------2----------2-----| (throughout song)
A|-------0-----0---0--0---0-----|
E|------------------------------|
VERSE
(guitar 2)
F,    C,    G,   Am,
Pearls that swim the rift of me
F,    C,    G,   Am,
Long and weary my road has been
F,        C / Am,
I was lost in the cities
G,      Am / C,
Alone in the hills
   F    C / Am,
No sorrow I repeated
    G   Am / C,
For anything i feel yea

(figure 1)
e|------------------------------|
B|---1--0-----------------------|
G|------------------------------|
D|---------2--0-----------------|
A|-----------------2------------|
E|-----------------3------------|

CHORUS

   G         Dm
I am not your rolling wheels
     Am
I am a highway +(figure 1)
   G        Dm
I am not your carpet ride
     Am
I am the sky


VERSE
F,      C,
Friends and liars
   G,   Am,
Don't wait for me
   F,    C,
Cause I'll get on
  G,  Am,
All by myself
   F,    C / Am
Put millions of miles
  G,  Am / C
Under my heels
F,    C / Am    G
And still too close to you
Am / C
I feel


CHORUS

   G         Dm
I am not your rolling wheels
     Am
I am a highway +(figure 1)
   G        Dm
I am not your carpet ride
     Am
I am the sky
   G        Dm
I am not your blowing wind
     Am
I am the sky here
   G        Dm
I am not your automn moon
     E
I am the night
   E
The night

e|-------------------------------|
B|--1----------------------------|
G|------------------0------------|
D|----2-----------2--------------| (x3)
A|------0--3----------0-----5--0-|
E|------------3------------------|


SOLO

e|-------------------------------|
B|----13-------------------------|
G|-14----14-12-12---12---12------|
D|----------------14---14---14---|
A|-----------------------------12|
E|-------------------------------|

e|-------------------------------|
B|----13-------------------------|
G|-14----14-12-12---12---12---12-|
D|----------------14---14---14---|
A|-------------------------------|
E|-------------------------------|

e|----------------------------------|
B|--------15-15--13-13--12-12-------|
G|-14-14----------------------14-14-|
D|----------------------------------|
A|----------------------------------|
E|----------------------------------|

e|-12-12-----------------------------------------|
B|-------15-15--13-13----------------------------|
G|--------------------14-14--12-12----12-14---14-|
D|---------------------------------14------------|
A|-----------------------------------------------|
E|-----------------------------------------------|

(Figure 1)

You can do the rest:)...enjoi
Id like to dedicate this song to my X...This song rules

Almost there ...

Sign in to get your own page with links to favourite songs and more. You are just one click away...

Login with Facebook Login with Google