Log in

One click and you are in

Login with Facebook Login with Google

Why sign up and log in

Guitar Tabs Explorer
Audioslave bass tabs for Hypnotize

Bass tabs

5-string bass tunned low to high: B E A D G
\ : slide into
/ : slide out of


intro/verse/chorus:
|----------------------|
|----------------------|
|-------5-----5--------|
|--5\7-----7-----7/----|
|-------------------0--|

interlude:
|--------------------------------|
|--------------------------------|
|--0----0----2----2----0----0----|
|--------------------------------|
|--------------------------------|
 whole notes, let ring


outro:
|--------------------------------------------------|
|--------------------------------------------------|
|-------5-----5-------5-----5-------5-----5--------|
|--5\7-----7-----5\7-----7-----5\7-----7-----7/----|
|-----------------------------------------------0--|

and if you don't have a 5-string, get one.
well here's what i do for a 4-string
tunned low to high: B A D G


intro/verse/chorus:
|-----------------------------|
|-----------------------------|
|-----------------------------|
|--10\12--15--12--15--12/--0--|

interlude: same as above


outro:
|-------------------------------------------------------------------|
|-------------------------------------------------------------------|
|-------------------------------------------------------------------|
|--10\12--15--12--15--10\12--15--12--15--10\12--15--12--15--12/--0--|


that's it. there's no bass in the guitar whammy solo. there's some
rests here and there. the bass ends before the guitar. nice groovy
some. enjoy it. comments welcomed.

Almost there ...

Sign in to get your own page with links to favourite songs and more. You are just one click away...

Login with Facebook Login with Google