Log in

One click and you are in

Login with Facebook Login with Google

Why sign up and log in

Guitar Tabs Explorer
Audioslave tabs for Heavens dead (Ver. 2)

Guitar tabs

Heavens Dead
Audioslave
Out of Exile

Drop A chord diagramD MajorD Tuning
Intro/Verse (First 2 times)
e|----------------------------------------------------------|
b|----------------------------------------------------------|
g|----------------------------------------------------------|
d|----------------------------------------------------------|
a|-9-9-9-10-10-10-7-7-7-9-9-9-5-5-5-7-7-7--2-4-5---5-5-----|
A chord diagramD MajorD|--0-0-0--0--0-----0-0-0-0-0-0-0-0-0-0-0-0-0-0-0--0-0-0----|

(3rd time)
e|-----------------------------------------------------------|
b|-----------------------------------------------------------|
g|-----------------------------------------------------------|
d|-----------------------------------------------------------|
a|-9-9-9-10-10-10-7-7-12-9-9-9-5-5-5-7-7-7--2-4-5---5-5----|
A chord diagramD MajorD|--0-0-0--0--0--0--0-0-----0-0-0-0-0-0-0-0-0-0-0-0--0-0-0---|


Chorus 1: Strum first two chords, end on third
    A chord diagramG+G  A chord diagramA augmentedA   A chord diagramFF
e|------------------------|
A chord diagramBB|------------------------|
A chord diagramG+G|------------------------|
A chord diagramD MajorD|--5—-7---3*-------------|
A chord diagramA augmentedA|--5--7---3*-------------|
A chord diagramD MajorD|--5--7---3*-------------|


Verse

Chorus 2: Strum all chords, except open notes
e|--------------0---| (x2)
A chord diagramBB|--------------0---|
A chord diagramG+G|--------------0---|
A chord diagramD MajorD|--5--7--3--2------|
A chord diagramA augmentedA|--5--7--3--2------|
A chord diagramD MajorD|--5--7--3--2------|


Solo                        h  h
e|---------------------------------------------------------|
b|----15---------------------------------------------------|
g|---------14~~-12p11------------------------14------------|
d|-12---12------------12--14^14^14p12-----12----12~~-------|
a|------------------------------------14-------------------|
A chord diagramD MajorD|---------------------------------------------------------|

                                 Harmonics
e|-----------------------------------------|
b|------------------------------------7*---|
g|-14p12p11h12p11-----11---12^11----7*--7*-|
d|-----------------12-------------7*-------|
a|-----------------------------------------|
A chord diagramD MajorD|-----------------------------------------|

Breakdown:
e|--------------------------------------------| (x3)
A chord diagramBB|--------------------------------------------|
A chord diagramG+G|-11-9--7-6----------------------------------|
A chord diagramD MajorD|-12-11-9-7-0-5--7-------------------10------|
A chord diagramA augmentedA|-0--0--0-0-0-7--9-0-----------10h12---------|
A chord diagramD MajorD|------------------0---0-10h12---------------|

Last Time
e|--------------------------------------------|
A chord diagramBB|--------------------------------------------|
A chord diagramG+G|-11-9--7-6----------------------------------|
A chord diagramD MajorD|-12-11-9-7-0-5--7---------------------------|
A chord diagramA augmentedA|-0--0--0-0-0-7--9-0-----------10h12\\-----|
A chord diagramD MajorD|------------------0---0-10h12---------------|

Back into the Chorus

Then back into the verse, but with a different ending:
e|----------------------------------------------------------|
b|----------------------------------------------------------|
g|----------------------------------------------------------|
d|----------------------------------------------------------|
a|-9-9-9-10-10-10-7-7-7-9-9-9-5-5-5-7-7-7---2-4---5--0-----|
A chord diagramD MajorD|--0-0-0--0--0-----0-0-0-0-0-0-0-0-0-0-0-0--2-4---5--0-----|

Breakdown
ⓘ This is the 2nd version of guitar tab for 'Heavens Dead' by Audioslave, a hard rock band formed in 2001 from Los Angeles, California, USA. They retired in 2007

Other versions of Heavens Dead

Heavens deadTabs

Almost there ...

Sign in to get your own page with links to favourite songs and more. You are just one click away...

Login with Facebook Login with Google