Log in

One click and you are in

Login with Facebook Login with Google

Why sign up and log in

Guitar Tabs Explorer
Audioslave bass tabs for Getaway car

Bass tabs

key:
slide up = su
slide down = sd
bend = b
slight bend = sb
let ring = ~
intro/verse : clean
E-------------------15sd---------------------12sd-
B-10~-11~-15~-13~----------10~-11~-15~-13~--------
G-------------------------------------------------
D--7~--8~-12~-10~-----------7~--8~-12~-10~--------
A-------------------------------------------------
E-------------------------------------------------

guitar 2 in background fades in towards the end of
the second verse just repeat several times
E------
B------
G------
D-9b---
A------
E------


chorus : clean
E-----------------------------------
B-----------------------------------
G-2~---4-5-4-------7-2-4-5-2~-5-5-4-
D------------5--7-------------------
A-0~---2-3-2-------5-0-2-3-0~-3-3-2-
E------------3--5-------------------


solo : clean maybe a lil reverb i dont know
E------------------------------------------------------------
B------------------------------------------------------------
G--------------------------------------------12b-12b-12b-12b-
D-2su-7-9-10-7--------7-h-10-7--7-10-9--9-10-12b-12b-12b-12b-
A--------------7-h-10----------------------------------------
E------------------------------------------------------------

E-------------------------------------------------------------
B-------------------------------------------------------------
G-------12b-12b-12b-12b-------12-12b-12b-------12----------12-
D-14-12-12b-12b-12b-12b-12-14----12b-12b-12-14----14-12-14----
A-------------------------------------------------------------
E-------------------------------------------------------------

E----------------------------------------
B-----------------------------------12sb-
G-14b-12-------14b-12-------------9------
D--------14-12--------14-12----10--------
A---------------------------12-----------
E----------------------------------------


outro
E-------------------15sd-------------------
B-10~-11~-15~-13~----------10~-11~-15~-13~-
G------------------------------------------
D--7~--8~-12~-10~-----------7~--8~-12~-10~-
A------------------------------------------
E---------------------------------------8~-

order:

intro/verse 3x

chorus 2x

intro/verse 3x

chorus 2x

intro/verse 2x

solo 1x

chorus 2x

intro/verse 2x

outro 1x

Almost there ...

Sign in to get your own page with links to favourite songs and more. You are just one click away...

Login with Facebook Login with Google