Log in

One click and you are in

Login with Facebook Login with Google

Why sign up and log in

Guitar Tabs Explorer
Audioslave guitar tabs for Cochise (Ver. 2)

Guitar tabs with lyrics

The intro uses a delay pedal while he mutes the strings and slaps them.
It looks kinda like this I guess.

x-Muted
~-hold out note
()-Optional what ever sounds better to you
sd-Slide Down the neck

e|-------------------------------------------------------------------------|
B|-------------------------------------------------------------------------|
G|-------------------------------------------------------------------------|
D|x-x-x-x-x-x-x-x-x-x-x-x-x-x-x-x-x-x-x-x-x-x-x-x-x-x-x-x-x-x-x-x-x-x-x-x-x|
A|x-x-x-x-x-x-x-x-x-x-x-x-x-x-x-x-x-x-x-x-x-x-x-x-x-x-x-x-x-x-x-x-x-x-x-x-x|
E|x-x-x-x-x-x-x-x-x-x-x-x-x-x-x-x-x-x-x-x-x-x-x-x-x-x-x-x-x-x-x-x-x-x-x-x-x|

The next part is kind of silent but he does this

e|-------------------------------------------------------------------------|
B|-------------------------------------------------------------------------|
G|-9~~~~~~~~~~~~~11~~~~~~~~~~~~~12~~~~~~~~~~~~~14~~~~~~~~~~~~~-------------|
D|-9~~~~~~~~~~~~~11~~~~~~~~~~~~~12~~~~~~~~~~~~~14~~~~~~~~~~~~~-------------|
A|-7~~~~~~~~~~~~~9~~~~~~~~~~~~~~10~~~~~~~~~~~~~12~~~~~~~~~~~~~-------------|
E|-------------------------------------------------------------------------|

Then he does this immedietly after (repeat this riff 12 times)i know its annoying. We
call this the CHORUS

e|-------------------------------------------------------------------------|
B|-------------------------------------------------------------------------|
G|-------------------------------------------------------------------------|
D|-------------------------------------------------------------------------|
A|-7--5---5---------7--5---------------------------------------------------|
E|------7---7--3--0------7-3-0---------------------------------------------|


Then on the last time you do this

e|-------------------------------------------------------------------------|
B|-------------------------------------------------------------------------|
G|---------------7~-8~-----------------------------------------------------|
D|---------------7~-8~-----------------------------------------------------|
A|-7--5----------5~-6~-----------------------------------------------------|
E|------7--3--0------------------------------------------------------------|

Then the next riff (repeat 4 times then do solo) we will call it VERSE 1

e|-------------------------------------------------------------------------|
B|-------------------------------------------------------------------------|
G|-(9)-(9)-----------------------------------------------------------------|
D|-(9)-(9)-----------------------------------------------------------------|
A|--7---7-----------------5------------------------------------------------|
E|--------5--3--0--3--5--7-------------------------------------------------|

EASY SOLO (tremelo pick while bending, I cant really explain the timing its easy to
out though.)

e|-------------------------------------------------------------------------|
B|-------------------------------------------------------------------------|
G|-2~~~~~2~~~~~~14~~~14~~~14~~~14~~~14~~~14~~~-----------------------------|
D|-------------------------------------------------------------------------|
A|-------------------------------------------------------------------------|
E|-------------------------------------------------------------------------|

Then do the CHORUS 8 times
Then do the VERSE 1 8 times

Then do this

e|-------------------------------------------------------------------------|
B|-------------------------------------------------------------------------|
G|-------------------------------------------------------------------------|
D|-9~~~~----9~~~~------9~~~~----9~~~~--------------------------------------|
A|--------------------------------------------7~~~~-----7~~~~-----7~~~~----|
E|-----7~~~~------7~~~~----7~~~~----7~~~~----------0~~~~-----0~~~~----0~~~~|

Then do VERSE 1 again (i forgot how many times but end it like this)

e|-------------------------------------------------------------------------|
B|-------------------------------------------------------------------------|
G|(9)(9)-------------------(9)sd-------------------------------------------|
D|(9)(9)-------------------(9)sd-------------------------------------------|
A|-7--7------------------5--7-sd-------------------------------------------|
E|-------5--3--0--3--5--7--------------------------------------------------|

Other versions of Cochise

CochiseTabs

↓ Add and view comments below ↓

What do you think about this song and these tabs?

Add your comments, questions, rant or a thumbs up below.

Almost there ...

Sign in to get your own page with links to favourite songs and more. You are just one click away...

Login with Facebook Login with Google