Log in

One click and you are in

Login with Facebook Login with Google

Why sign up and log in

Guitar Tabs Explorer
Audioslave bass tabs for Chochise

Bass tabs

Normal tuning


intro: Just play this real fast at the start

G|-----------------------------|
D|-----------------------------|
A|-----------------------------|
E|-000000000000000000000000000-|

 Verse:
G|------------------------|
D|------------------------|
A|-7-5-0----------7-5-0---|
E|-------7-0--3-0-------7-|

 Pre-Chorus:
G|--------------------|
D|--------------------|
A|-7-5p0----------5-6-|
E|-------7-0--3p0-----|

 Chorus:
G|--------------------|
D|-2-2----------------|
A|-----------------2-5|
E|-----5-3-0--3--5----|

 Bridge:
G|-2-4---2-4---2-4---|------------------|
D|-------------------|------------------|
A|-----2-----2-----2-|--5-7---5-7---5-7-|
E|-------------------|------0-----0-----|

Almost there ...

Sign in to get your own page with links to favourite songs and more. You are just one click away...

Login with Facebook Login with Google