Log in

One click and you are in

Login with Facebook Login with Google

Why sign up and log in

Guitar Tabs Explorer
Audioslave bass tabs for Broken city

Bass tabs

Tuning:Drop D


intro:
G|------------------------|
D|------------------------|x2
A|------------------------|
E|-x3--5-5-5---x3--5-5-5--|
verse:
G|---------------------------------------------------------|
D|-------3-5-5---------------------3-5-5-------------------|x2
A|-------------3-5-----------------------3-5---------------|
E|-3-5-5-----------3-5-5-----3-5-5-----------3-5-5--x0-3-5-|


chorus:
G|-------------------------------3-|
D|-----------------5---5-6-3---3---|x4
A|-5---5-6-3-----3---5-------1-----|
E|---5-------5-3-------------------|


chorus outro:
G|-----------------------------|
D|-/8-------------/8-----------|x2
A|-----------------------------|
E|-----55---5-53-----55---5-53-|


verse:
G|---------------------------------------------------------|
D|-------3-5-5---------------------3-5-5-------------------|x2
A|-------------3-5-----------------------3-5---------------|
E|-3-5-5-----------3-5-5-----3-5-5-----------3-5-5--x0-3-5-|

chorus:
G|-------------------------------3-|
D|-----------------5---5-6-3---3---|x4
A|-5---5-6-3-----3---5-------1-----|
E|---5-------5-3-------------------|


chorus outro:
G|-----------------------------|
D|-/8-------------/8-----------|x2
A|-----------------------------|
E|-----55---5-53-----55---5-53-|


break:
G|--------------------------------|
D|--------3-5-5-------------------|x6
A|--------------3-5---------------|
E|-3-5-5------------5-5-5--x0-3-5-|


chorus:
G|-------------------------------3-|
D|-----------------5---5-6-3---3---|x4
A|-5---5-6-3-----3---5-------1-----|
E|---5-------5-3-------------------|


verse:
G|---------------------------------------------------------|
D|-------3-5-5---------------------3-5-5-------------------|
A|-------------3-5-----------------------3-5---------------|
E|-3-5-5-----------3-5-5-----3-5-5-----------3-5-5--x0-3-5-|

G|---------------------------------|
D|-------3-5-5-----------3-5-5-----|
A|-------------3-5-------------3-5-|
E|-3-5-5-----------3-5-5-----------|
repeat this until song fades out

| /  slide up
| \  slide down
| h  hammer-on
| p  pull-off
| ~  vibrato
| +  harmonic
| x  Mute note

Almost there ...

Sign in to get your own page with links to favourite songs and more. You are just one click away...

Login with Facebook Login with Google