Log in

One click and you are in

Login with Facebook Login with Google

Why sign up and log in

Guitar Tabs Explorer
Audio Adrenaline bass tabs for World changers

Bass tabs with lyrics

-------------------------------------------------------------------------------
           WORLD CHANGERS - Audio Adrenaline
-------------------------------------------------------------------------------
Tabbed by: LukasCarls
E-mail: lukas.carls@live.com
Tuning: Standard


Verse 1:

G|--------------------|--------------------|--------------------|------------------|
D|---0----------------|---0----------------|---0----------------|---0--------------|
A|-------3------------|-------3------------|-------3------------|-------3----------|
E|-----------3--------|-----------3--------|-----------3--------|-----------3------|

We're all broken pieces
Of the same design
But Your grace redeemed us
Your Spirit lives inside
We are the generation
To rise up and make You known
To every tribe, every tongue
Every nation, we will go


Chorus:

G|--------------------|--------------------|--------------------|------------------|
D|---0----------------|---0----------------|---0----------------|---0--------------|
A|-------3------------|-------3------------|-------3------------|-------3----------|
E|-----------3--------|-----------3--------|-----------3--------|-----------3------|

We can be world changers
We can be world changers
If we love like we do
We stand for the truth
We'll see Your light break through
We can be world changers


Verse 2:

G|--------------------|--------------------|--------------------|------------------|
D|---0----------------|---0----------------|---0----------------|---0--------------|
A|-------3------------|-------3------------|-------3------------|-------3----------|
E|-----------3--------|-----------3--------|-----------3--------|-----------3------|

How can we be silent
If we know the one who saves
We won't keep it quite
Cuz your spirit makes us brave
We are a generation
To rise up and make you known
To every tribe every tongue
Every nation we will go


Chorus: 2x

G|--------------------|--------------------|--------------------|------------------|
D|---0----------------|---0----------------|---0----------------|---0--------------|
A|-------3------------|-------3------------|-------3------------|-------3----------|
E|-----------3--------|-----------3--------|-----------3--------|-----------3------|

We can be world changers
We can be world changers
If we love like we do
We stand for the truth
We'll see Your light break through
We can be world changers


Bridge:

G|--------------------|------------------|-------------------|-------------------|
D|---0----------------|------------------|-------------------|-------------------|
A|--------------------|---3------------5\|\2-----------------|-------------------|
E|--------------------|------------------|-------------------|---3---------------|

Someday every knee will bow
Your name will be on every mouth
But until that trumpet sounds
We will go (we can be)


Chorus:

G|--------------------|--------------------|--------------------|------------------|
D|---0----------------|---0----------------|---0----------------|---0--------------|
A|-------3------------|-------3------------|-------3------------|-------3----------|
E|-----------3--------|-----------3--------|-----------3--------|-----------3------|

We can be world changers
We can be world changers
If we love like we do
We stand for the truth
We'll see a light break through
We can be world changers
We can be world changers
We can be world changers
We can be world changers
We can be world changers


| / slide up
| \ slide down
| h hammer-on
| p pull-off
| ~ vibrato
| + harmonic
| x Mute note
ⓘ Bass guitar tab for 'World Changers' by Audio Adrenaline, a male artist. Audio Adrenaline was born in 1991. Audio Adrenaline is known for his fun punk music.

Almost there ...

Sign in to get your own page with links to favourite songs and more. You are just one click away...

Login with Facebook Login with Google