Log in

One click and you are in

Login with Facebook Login with Google

Why sign up and log in

Guitar Tabs Explorer
Audio Adrenaline bass tabs for Im not the king

I'm Not The King bass tab by Audio Adrenaline

Audio Adrenaline bass tabs for Im not the king

Bass tabs

I'm Not The King
Audio Adrenaline
Album bloom
(c) 1996 The ForeFront Communications Group inc.
Originally Tabbed by Skip Woodstock (Icepick111@aol.com 's teacher)
New Version Tabbed by Bryan Cool (bcool@primary.net)
Intro           4x
-----------------------------------|
-----------------------------------|
-------5/7-------------------------|
-0--0-------0--0--2--0-------------|----0-2-0

           Verse   2x
----------------------------------|-------------|
-----------------------------2--4-|-------------|
------------------------2-4-------|--6--6--4--5-|
0----0-2----2-0----0--2-----------|-------------|

                  2x
^&^
-------------------------------------|
-------------------------------------|
------5/7----------------------------|
0--0--------0--0--2--0---------------|

					      2x
---------------------0-------------|---------------------------------|
--------------0---2-----2-----0----|---------------------------------|
--------------------------0h2------|--------5/7----------------------|
0----0-0-3-------------------------|--0--0-------0--0--2--0----------|

--------------------7-7-------|------------------------------|
-----------------(5)-----7\---|------------------------------|
------------5--7--------------|--------5/7-------------------|
0----0-0-3--------------------|--0--0-------0--(0--2--0)-----|

						Play (0--2--0) only 1st time
---------------------------------------------------------------------------
---------------------------------------------------------------------------
------------0--0--0--0--0--0--0--0--0-------------0--0--0--0--0--0--0--0--0
---2--3--4------------------------------2--3--4----------------------------

--------------------------------------------
--------------------------------------------
--------------------------------------------
--4--3--2--0--0--0--0--0--0--0--0--0-0------

  1st Ending			    2x
-----------------------------------|-------------|
-----------------------------2--4--|-------------|
------------------------2-4--------|--6--6--4--5-|
0----0-2----2-0----0-2-------------|-------------| (Goto ^&^)

2nd Ending
-----------------------------------------|
-----------------------------------------|
-----------------------------------------|
-4--3--2--0--0--0--0--0--0--0--0--0-0----|

---------------------------------------------------------------------------
---------------------------------------------------------------------------
------------0--0--0--0--0--0--0--0--0-------------0--0--0--0--0--0--0--0--0
---2--3--4------------------------------2--3--4----------------------------

-----------------------------------------------------------------------------------------
-----------------------------------------------------------------------------------------
-----------------------------------------------------------------------------------------
--4--3--2--0--0--0--0--0--0--0--0--0-0--------4--3--2--0--0--0--0--0--0--0-0-0-0-0-0-0-0-

GUITAR SOLO(I can't figure out the bass background for this. If anybody knows it, please email me.)
AFTER GUITAR SOLO:
||----------------------------------------------------------------
||*---------------------------------------------------------------
||-0--0--0--0--0--0--0--0--0-------------0--0--0--0--0--0--0--0--0
||-----------------------------2--3--4----------------------------

                     1st Ending
----------------------------------------|--------------------------------------------------||
----------------------------------------|-------------------------------------------------*||
----------------------------------------|--------------------------------------------------||
--4--3--2--0--0--0--0--0--0--0--0--0-0--|-4--3--2--0--0--0--0--0--0--0--0--0-0--2--3--4----||

2nd Ending
|-------------------------------------------------------
|-------------------------------------------------------
|-------------------------------------------------------
|-4(pause)-3(pause)-2(pause)-0--0--0--0--0--0--0--0--0-0

-----------------------------------------------------------------------------
-----------------------------------------------------------------------------
----------0--0--0--0--0--0--0--0--0-------------0--0--0--0--0--0--0----------
2--3--4-------------------------------2--3--4-------------------------4--3--2

			 2x
-------------------------|---------
-------------------------|---------
-------5/7---------------|---------
-0--0-------0--0--2--0---|--0--2--0

Almost there ...

Sign in to get your own page with links to favourite songs and more. You are just one click away...

Login with Facebook Login with Google