Log in

One click and you are in

Login with Facebook Login with Google

Why sign up and log in

Guitar Tabs Explorer
Audience bass tabs for Raid

Bass tabs

  • Tuning: Standard tuning
  • Difficulty: Advanced
-------------------------------------------------------------------
              Artist - Audience
              *******************
                Song - Raid
               *************
         Album - Friend`s Friend`s Friend (1970)
         *****************************************
              Tabbed By - Ayreon77
             **********************
-------------------------------------------------------------------

Tuning = Standard

INTRO
******
G|---------------------------------------------------------------------------------|
D|---------------------------------------------------------------------------------|
A|-2--2-2--2-2--2-2--0-2--2-2--2-2--2-2--0-2--2-2--2-2--2-2--0-2--2-2--2-2--2-2--0-|
E|---------------------------------------------------------------------------------|


------------------------
00:09

VERSE 1
********
G|---------------------------------------------------------------------------------|
D|---------------------------------------------------------------------------------|
A|-2--2-2--2-2--2-2--0-2--2-2--2-2--2-2--0-2--2-2--2-2--2-2--0-2--2-2--2-2--2-2--0-|
E|---------------------------------------------------------------------------------|


G|---------------------------------------------------------------------------------|
D|---------------------------------------------------------------------------------|
A|-2--2-2--2-2--2-2--0-2--2-2--2-2--2-2--0-2--2-2--2-2--2-2--0-2--2-2--2-2--2-2--0-|
E|---------------------------------------------------------------------------------|

------------------------
00:26

BREAK
******
G|---------------------11---11---11---11----11-|-----------------4----4----4----4----4----|
D|-------0--2--4-2-0-9----9----9----9----9-----|------0--2---------4----4----4----4-----4-|
A|-2--4----------------------------------------|-2--4------4-2-0--------------------------|
E|---------------------------------------------|------------------------------------------|


G|---------------------11---11---11---11----11-|-----------------4----4----4----4----4----|
D|-------0--2--4-2-0-9----9----9----9----9-----|------0--2---------4----4----4----4-----4-|
A|-2--4----------------------------------------|-2--4------4-2-0--------------------------|
E|---------------------------------------------|------------------------------------------|


------------------------
00:43

VERSE 2
********
G|---------------------------------------------------------------------------------|
D|---------------------------------------------------------------------------------|
A|-2--2-2--2-2--2-2--0-2--2-2--2-2--2-2--0-2--2-2--2-2--2-2--0-2--2-2--2-2--2-2--0-|
E|---------------------------------------------------------------------------------|


G|---------------------------------------------------------------------------------|
D|---------------------------------------------------------------------------------|
A|-2--2-2--2-2--2-2--0-2--2-2--2-2--2-2--0-2--2-2--2-2--2-2--0-2--2-2--2-2--2-2--0-|
E|---------------------------------------------------------------------------------|


------------------------
01:00

BREAK
******
G|---------------------11---11---11---11----11-|-----------------4----4----4----4----4----|
D|-------0--2--4-2-0-9----9----9----9----9-----|------0--2---------4----4----4----4-----4-|
A|-2--4----------------------------------------|-2--4------4-2-0--------------------------|
E|---------------------------------------------|------------------------------------------|


G|---------------------11---11---11---11----11-|-----------------4----4----4----4----4----|
D|-------0--2--4-2-0-9----9----9----9----9-----|------0--2---------4----4----4----4-----4-|
A|-2--4----------------------------------------|-2--4------4-2-0--------------------------|
E|---------------------------------------------|------------------------------------------|


------------------------
01:17

BRIDGE
*******
G|---------------------------|---------------------------|---------------------------|
D|-3-3-3--3--3-3-3--3--3-3-3-|-3-3-3--3--3-3-3--3--3-3-3-|-3-3-3--3--3-3-3--3--3-3-3-|
A|---------------------------|---------------------------|---------------------------|
E|---------------------------|---------------------------|---------------------------|


G|---------------------------|---------------------------|---------------------------|
D|-3-3-3--3--3-3-3--3--6-6-6-|-8-8-8--8--8-8-8--8--8-8-8-|-8-8-8--8--8-8-8--8--8-8-8-|
A|---------------------------|---------------------------|---------------------------|
E|---------------------------|---------------------------|---------------------------|


G|---------------------------|---------------------------|-------6--------------------|
D|-8-8-8--8--8-8-8--8--8-8-8-|-8-8-8--8--8-8-8--8--8-8-8-|-8--6-----9--9-9-9--9-9-9-9-|
A|---------------------------|---------------------------|----------------------------|
E|---------------------------|---------------------------|----------------------------|


G|----------------------------------|
D|-9-9--9-9-9-9-9-9-9-9-9-9-9-9-7---|
A|--------------------------------9-|
E|----------------------------------|


------------------------
01:41
FUNKY
******
G|----------------2-4-|--------------2---4-|------------2-4---|-----------2---------|
D|-----------2--4-----|------4--4-2----4---|----2--2-4------4-|------4--4---4-2-0---|
A|-2--2-5--5----------|-2--2---------------|-2----------------|-2--2--------------0-|
E|--------------------|--------------------|------------------|---------------------|


G|----------------2-4-|-------4--4-2------2-|--------------------|--------------------------s--2---|
D|-----------2--4-----|---------------2-4---|------4--4-2--0-----|---------0-0-0-0-2-2-2-2-2\\4---4-|
A|-2--2-5--5----------|-2--2----------------|-2--2-----------2-0-|-2-2-2-2-------------------------|
E|--------------------|---------------------|--------------------|---------------------------------|


------------------------
01:59

VERSE 3
********
G|---------------------------------------------------------------------------------|
D|---------------------------------------------------------------------------------|
A|-2--2-2--2-2--2-2--0-2--2-2--2-2--2-2--0-2--2-2--2-2--2-2--0-2--2-2--2-2--2-2--0-|
E|---------------------------------------------------------------------------------|


G|---------------------------------------------------------------------------------|
D|---------------------------------------------------------------------------------|
A|-2--2-2--2-2--2-2--0-2--2-2--2-2--2-2--0-2--2-2--2-2--2-2--0-2--2-2--2-2--2-2--0-|
E|---------------------------------------------------------------------------------|


------------------------
02:17

BREAK
******
G|---------------------11---11---11---11----11-|-----------------4----4----4----4----4----|
D|-------0--2--4-2-0-9----9----9----9----9-----|------0--2---------4----4----4----4-----4-|
A|-2--4----------------------------------------|-2--4------4-2-0--------------------------|
E|---------------------------------------------|------------------------------------------|


G|---------------------11---11---11---11----11-|-----------------4----4----4----4----4----|
D|-------0--2--4-2-0-9----9----9----9----9-----|------0--2---------4----4----4----4-----4-|
A|-2--4----------------------------------------|-2--4------4-2-0--------------------------|
E|---------------------------------------------|------------------------------------------|


------------------------
02:33

BRIDGE
*******
G|---------------------------|---------------------------|---------------------------|
D|-3-3-3--3--3-3-3--3--3-3-3-|-3-3-3--3--3-3-3--3--3-3-3-|-3-3-3--3--3-3-3--3--3-3-3-|
A|---------------------------|---------------------------|---------------------------|
E|---------------------------|---------------------------|---------------------------|


G|---------------------------|---------------------------|---------------------------|
D|-3-3-3--3--3-3-3--3--6-6-6-|-8-8-8--8--8-8-8--8--8-8-8-|-8-8-8--8--8-8-8--8--8-8-8-|
A|---------------------------|---------------------------|---------------------------|
E|---------------------------|---------------------------|---------------------------|


G|---------------------------|---------------------------|-------6----|
D|-8-8-8--8--8-8-8--8--8-8-8-|-8-8-8--8--8-8-8--8--8-8-8-|-8--6-----9-|
A|---------------------------|---------------------------|------------|
E|---------------------------|---------------------------|------------|


------------------------
Acoustic Comes In No Bass
***************************


------------------------
03:17
SAX
****
G|-------------------|-----------11---11---11---11---11---11---11-|
D|-9--9---------11-9-|-11------9----9----9----9----7----7----7----|
A|---------9-12------|----9-12------------------------------------|
E|-------------------|--------------------------------------------|


G|---11---11---11---11---11---11---11-|-------11------11----|----------|----------------|
D|-9----9----9----9----7----7----7----|-9---9----9-9----9-9-|----7---7-|---11---7---9---|
A|------------------------------------|---9-------9------9--|-9----9---|-9----9---9---9-|
E|------------------------------------|---------------------|----------|----------------|

03:47
G|---11-----------------------------------|-------11----------------------------------|
D|-9---9-9-9---7-9--7------7---11---7---7-|---9-----9-----9---9---7---7---7---7---7-9-|
A|--9-----9---9---9---9--9---9----9---9---|-9---9----9--9---9---9---9---9---9---9-----|
E|----------------------------------------|-------------------------------------------|

03:58
G|-----------------------------------------------------------|
D|-9---9----9----9----9---9-----11-11-7---7----7---7---9---9-|
A|---9----9----9----9---9---9-9---------9---9----9---9---9---|
E|-----------------------------------------------------------|

Anmd then just repeat this till it stops.........................
G|---------------------------------------------------------------|
D|---9-9----9-9----9-9----9-9----9-9----9-9----9-9----9-9----9-9-|
A|-9------9------9------9------9------9------9------9------9-----|
E|---------------------------------------------------------------|


ENJOY..............

Almost there ...

Sign in to get your own page with links to favourite songs and more. You are just one click away...

Login with Facebook Login with Google