Log in

One click and you are in

Login with Facebook Login with Google

Why sign up and log in

Guitar Tabs Explorer
Atreyu bass tabs for Lip gloss and black

Bass tabs

I could only Tab out parts to the song,
But I hope this is good enough for everyone
To get an Idea of how the song goes,

Atreyu - Lip Gloss And Black (Bass Tabs)

Tabed By: Darrell (Bozzymaster)
Tuning: CGCF


Intro

 0:05
F|-----------------------|
C|-----------------------|
G|-----------------------|
C|-3--3--2--2--3--3--3--2|

 0:11
|-----------------|x4
|-----------------|
|-----------------|
|0--8--0--10--8--7|

 0:33
F|---------------------|x2
C|---------------------|
G|---------------------|
C|-0---8---0---1---8---|

 0:42
F|----------------------------------------------------------|
C|----------------------------------------------------------|
G|-----------------------8-----8----------------------------|
C|8--10--0---8--10---0-0---0-0---8--10--0---8--10--7---10--0|


 Piano Part (3:13)
F|------------------|x2  |----------|
C|------------------|   |----------|
G|------------------|   |----------|
C|12--15--8--10/11--|   |5--3--1/3-|

 3:25
G|---------------|x4
C|---------------|
G|---------------|
C|0--8--1--1--1-0|

Almost there ...

Sign in to get your own page with links to favourite songs and more. You are just one click away...

Login with Facebook Login with Google