Search tabs and chords

Search for song, artist or band

Log in

One click and you are in

Login with Facebook Login with Google

Why sign up and log in

Guitar Tabs Explorer
Atlas guitar tabs for Trapped acoustic

Guitar tabs

Tuning: Standard (E chord diagramEE A chord diagramAA D chord diagramDD G chord diagramGG B chord diagramBB E chord diagramEE)

Difficulty: Novice

Intro:

e|--------0-------|
B|------0---0-----|
G|----0-------0---|
D|--2-----------2-|
A|----------------|
E|----------------|

e|--------0-------|
B|------0---0-----|
G|----0-------0---|
D|--1-----------1-|
A|----------------|
E|----------------|

e|--------0-------|
B|------0---0-----|
G|----0-------0---|
D|--0-------------|
A|----------------|
E|----------------|

e|--5---3-2--3-2-0|
B|----------------|
G|----------------|
D|----------------|
A|----------------|
E|----------------|

and  Just repeat through out whole song.

Almost there ...

Sign in to get your own page with links to favourite songs and more. You are just one click away...

Login with Facebook Login with Google