Log in

One click and you are in

Login with Facebook Login with Google

Why sign up and log in

Guitar Tabs Explorer
Chet Atkins tabs for Sugar bush

Guitar tabs

Sugar Bush
                 as recorded by
                  Chet Atkins


This is a really cool tune I've been working on
lately.
Tune low A chord diagramE MajorE to A chord diagramD MajorD

E-------------|--5---------------|--10p7-----0--|
B---7h8--7h8--|-----7----7----7--|--------8-----|
G---7h9--7h9--|-----7----7----7--|--------------|
D-------------|-----0----0----0--|--------------|
A-------------|--------0---------|--------------|
D-------------|--0----------0----|--------------|

E--5-----------------|--10p7-----0--|--5-------------|
B-----7-----7-----7--|--------8-----|-----7----7-----|
G-----7-----7-----7--|--------------|-----7----7-----|
D-----0-----0-----0--|--------------|-----0----0-----|
A--------0-----------|--------------|--------0----0--|
D--0-----------0-----|--------------|--0-------------|

E----------------|---------------------------|Repeat.
B-------0---0----|--3------------------------|Play
G-----2---2---2--|-----2-----2----2-----(2)--|notes in
D--5-------------|-----4-----4----4-----(4)--|Parenthss
A----------------|--------0----------(0)-----|2nd time
D----------------|--0-----------0------------|only.

Now comes the really cool part:

E-----------------------------------|
B----------3---------------------3--|
G-------2--------------0---------2--|
D--2s4--------0------0---0--2s4-----|
A----------------0h2----------------|
D--0------------------------0-------|

E------------------------------------|
B-------3-------------------------3--|
G--1h2-----2----------------------2--|
D-------------3p2-0---------------0--|
A-------------------3-2p0------------|
D--0-----------------------3h4-0-----|

E-----------------------------------|
B----------3---------------------3--|
G-------2--------------0---------2--|
D--2s4--------0------0---0--2h4-----|
A----------------0h2----------------|
D--0------------------------0-------|

E------------------------------|-------------------|
B-------0----1p0----------0----|--3----------------|
G-----2---2------2------2---2--|-----2-----2----2--|
D--4----------------4s5--------|-----4-----4----4--|
A------------------------------|--------0----------|
D--0---------------------------|--0-----------0----|

Repeat. That's the meat of it, anyway. If anyone
really wants it, I can tab out the rest.
Comments/questions/suggestions: quinndave88@yahoo.com

Tabbed by: Dave Quinn

Almost there ...

Sign in to get your own page with links to favourite songs and more. You are just one click away...

Login with Facebook Login with Google