Log in

One click and you are in

Login with Facebook Login with Google

Why sign up and log in

Guitar Tabs Explorer
Chet Atkins tabs for Mr sandman

Guitar tabs with lyrics

Mr. Sandman
by Pat Ballard

This transcription is based on Chet Atkins¹ arrangement as heard on: Chet
Atkins- Guitar 🏷Legend- The RCA Years.  I have included the section in ³A²
that he starts with and the section in ³D² that he ends with, leaving out
the ³C² section that he plays with piano accompaniment.   I am sure there
are notes missing, but listen to the recording and you can fill in.  This is
fun to play and a real crowd pleaser with the instantly recognized intro

riff.  Thanks Chet.

Peter Bergenske
berg1101@pacificu.edu

³A² Section

              A chord diagramA augmentedA                        A chord diagramE7E7

E-----------|------------|------------|--------------------------
B-----------|-------5--9-|-7--5-------|--------7--10--9----------
G-----------|----6-------|-------6----|-----7---------7----------
D--------6--|-7----------|----------7-|--9------------9----------
A--7--9-----|------------|------------|---------------7----------
E-----------|------------|------------|--------------------------

  A chord diagramA augmentedA                         A chord diagramE7E7
E------------|------------|--------------------------
B-------5--9-|-7--5-------|--------7--10--9---5---7--
G----6-------|-------6----|-----7---------7----------
D-7----------|----------7-|--9------------9----------
A------------|------------|---------------7----------
E------------|------------|--------------------------

  A chord diagramA augmentedA                        A chord diagramAbAb
E--------------|---------|-4---4-------4--|----------------------
B--9-----------|--7------|-4---4---7---4--|----------------------
G--6-----------|--6------|---------5------|----------------------
D-----x-----x--|---------|----------------|---------3--4---------
A--------------|--7------|----------------|--4--6----------------
E--5-----5-----|---------|-4--------------|----------------------


                       A chord diagramF#7F#7                              A chord diagramB7B7
E---5------5------4--|--------------2--|------------------------
B---3------3---------|--2------2----2--|------------------------
G-------5------------|--3--3-----------|------------------------
D-------------4------|---------2-------|---4---3---2------------
A--------------------|-----------------|----------------2-------
E--------------------|--2--------------|------------------------




                        EM7
E-----4--4--2--4---2--|------0------0--|-----------------------
B-----4--4-----4---4--|--2------2---2--|-----------------------
G---------------------|--1-------------|-----------------------
D--------------2------|--2-------------|-----------------------
A---------------------|----------------|-----------------------
E---------------------|----------------|--0--2--4--5-----------


   A chord diagramA7A7

E---7--7---5---7---5--|--8-----8----|--8---7-------------------
B------5-------5------|--7-----7----|--7---6-----5---7---------
G---------------------|--------8----|--------------------------
D----------5----------|--7----------|--7---6-------------------
A---------------------|-------------|--------------------------
E---------------------|-------------|--------------------------

  A chord diagramA augmentedA                        A chord diagramAbAb
E--------------|---------|-4---4-------4--|----------------------
B--9-----------|--7------|-4---4---7---4--|----------------------
G--6-----------|--6------|---------5------|----------------------
D-----X-----x--|---------|----------------|---------3--4---------
A--------------|--7------|----------------|--4--6----------------
E--5-----5-----|---------|-4--------------|----------------------


                       A chord diagramF#7F#7               A chord diagramB minorBm
E---5------5------4--|--------------2--|---------2--------------
B---3------3---------|--2------2----2--|-----3------------------
G-------5------------|--3--3-----------|--4---------------------
D-------------4------|---------2-------|-----4------------------
A--------------------|-----------------|--2---------2-----------
E--------------------|--2--------------|------------------------


               A chord diagramDmDm                               A chord diagramA augmentedA

E---------2---5---5---7--|---9--9--9-------7--|-5-----------5--
B------3------6----------|---7-----7---10-----|-5--------5-----
G--4---------------------|------7-------------|-------6--------
D------------------------|---0-----0----------|----7-----------
A-------------5----------|--------------------|----------------
E------------------------|--------------------|-5--------------


³D² Section


E----------|-------5--9-|-7--5-------|--------7--10--9--------
B----------|----7-------|-------7----|-----8------------------
G--------6-|-7----------|----------7-|--9---------------------
D--7--9----|------------|------------|------------------------
A----------|------------|------------|------------------------
E----------|------------|------------|------------------------


E-------5--9-|-7--5-------|--------7--10-|-9-----------
B----7-------|-------7----|-----8--------|-------------
G--7---------|----------7-|--9-----------|-------------
D------------|------------|--------------|-------------
A------------|------------|--------------|-----------4-
E------------|------------|--------------|-----5--7----


   A chord diagramD7D7                        A chord diagramDb7Db7

E---7-----------|-5------|---7--7-----7--|-----------------
B---7-----------|-7------|---6--------6--|----------------
G---------------|--------|---------------|-----------------
D------7------7-|----7---|---------6-----|--9--8--7--6-----
A---5-----5-----|-5------|---4-----------|-----------------
E---------------|--------|---------------|-----------------
                     AM7                       A chord diagramD7D7

E--8--8--8--8--7--|---------------|--------------------------
B--6--6-----6-----|--6--------6---|---------------------------
G-----------------|--6--6-----6---|--------------------------
D-----------------|--------5------|--9--8--7-----------------
A-----------------|---------------|------------5-------------
E-----------------|--5--------5---|---------------------------

                     CM7/G                    A chord diagramC majorC

E--7--7--5--7--5--|-----3-----3--|--------------|-------------
B--7-----7--7--7--|--5--5--5--5--|--------------|-------------
G-----------------|--4-----4-----|--------------|-------------
D-----------------|--------3-----|--------------|-------------
A--------------7--|--------------|-----0--2-----|-------------
E-----------------|--3-----------|--3---------8-|------------


E--10--10--8--10---8-|-11--11--11--10------------------------
B---8---8--8---8---8-|-10--10--10---9------------------------
G--------------------|-11--11--11--10-------------------------
D--------------------|-10--10--10---9-------------------------
A--------------------|--------------------------------------
E--------------------|----------------------------------------

   A chord diagramD7D7                        A chord diagramDb7Db7

E---7-----------|-5------|---7--7-----7--|-----------------
B---7-----------|-7------|---6--------6--|----------------
G---------------|--------|---------------|-----------------
D------7------7-|----7---|---------6-----|--9--8--7--6-----
A---5-----5-----|-5------|---4-----------|-----------------
E---------------|--------|---------------|-----------------


                     AM7             A chord diagramDm7Dm7

E--8--8--8--8--7--|---------------|--------5-----------5---
B--6--6-----6-----|--6--------6---|-----6-----------6------
G-----------------|--6--6-----6---|--7-----------7---------
D-----------------|--------5------|------------------------
A-----------------|---------------|--5--------5------------
E-----------------|--5--------5---|------------------------

   A chord diagramFm7Fm7                                A chord diagramC majorC

E--8---8--10----12--12--12------10----8-----------8---------
B--9------------10----------13--------8--------8-----------
G-----------------------10------------------9---------------
D----------------0-----------------------10-----------------
A--8--------------------------------------------------------
E-------------------------------------8---------------------

Almost there ...

Sign in to get your own page with links to favourite songs and more. You are just one click away...

Login with Facebook Login with Google