Log in

One click and you are in

Login with Facebook Login with Google

Why sign up and log in

Guitar Tabs Explorer
Ataque 77 tabs for Hacelo por mi

Guitar tabs with lyrics

HACELO POR MI - TRAPOS [EN VIVO]
POR SADMAD

Gtr I (E A D G B E) - 'Guitarra con distorci=F3n 1'
Gtr II (E A D G B E) - 'Guitarra con distorci=F3n 2'

*************************************************************

 Intro:

 (Guitarra 1 acompa=F1a a la 2)

 Guitarra con distorci=F3n 1
			      =20
|----------------------| 	    _____
|----------------------|  \\ //    |___  |
|--------------6-------|   \//       __| |
|-----2--------6-------|   /\\      / ___|  ( X 2 - Repetir 2 VECES)=20
|-----2--------4-------|  // \\    | |___
|-----0----------------| 	   |_____|

 Guitarra con distorci=F3n 2

|-0-----------------------------------------|
|-0-----------------------------------------|
|-1-----------------------------------------|
|-2-------------------------6---------------|
|-2----------2-4--7-7-6-6-4----7-7-6-4------|
|-0--0-2-3-4---------------------------3h4--|


|--0------------------------------------------|
|--0------------------------------------------|
|--1------------------------------------------|
|--2----------2--------------6----------------|
|--2------------4--7-7-6-6-4----7-7-6-6-4-4---|
|--0--0-2-3-4---------------------------------|

 Guitarra con distorci=F3n 1 Y 2

|-------------------|
|-------------------|
|------4---------4--|
|-4----4----7----4--|
|-4----2----7----2--|
|-2---------5-------|


 VERSO 1:


 Guitarra con distorci=F3n 1 Y 2


|------------------|-----------------------------------------|-----------= ---|
|------------------|-----------------------------------------|-----------= ---|
|------6-----------|---------6------------------------6------|---------4-= ---|
|-2----6----7----9-|----2----6----7----9----9----7----6----7-|----4----4-= ---|
|-2----4----7----9-|----2----4----7----9----9----7----4----7-|----4----2-= ---|
|-0---------5----7-|----0---------5----7----6----5---------5-|----2------= ---|


 VERSO 1:


 Guitarra con distorci=F3n 1 Y 2


|------------------|-----------------------------------------|-----------=-----|
|------------------|-----------------------------------------|-----------=-----|
|------6-----------|---------6------------------------6------|---------7-=---4-|
|-2----6----7----9-|----2----6----7----9----9----7----6----7-|----4----7-=---4-|
|-2----4----7----9-|----2----4----7----9----9----7----4----7-|----4----5-=---2-|
|-0---------5----7-|----0---------5----7----6----5---------5-|----2------=-----|


 VERSO 1:


 Guitarra con distorci=F3n 1 Y 2


|------------------|---------------------------------------------------|
|------------------|---------------------------------------------------|
|------6-----------|---------6------------------------6----------------|
|-2----6----7----9-|----2----6----7----9----9----7----6----6---------7-|
|-2----4----7----9-|----2----4----7----9----9----7----4----6----7----7-|
|-0---------5----7-|----0---------5----7----6----5-------------------5-|


|-------------------|
|-------------------|
|---------7----4----|
|----4----7----4----|
|----4----5----2----|
|----2--------------|


 PUNTEO FINAL:

 Guitarra con distorci=F3n 2
  (Guitarra 1 hace el INTRO)

|--------------------------------------------|
|-----9-7-9------9-7--------5-4--5-----5-4---|
|-9-9--------9-9-----9s6--6--------6-6-----6-|
|--------------------------------------------|
|--------------------------------------------|
|--------------------------------------------|


 OUTRO:

 Guitarra con distorci=F3n 1 Y 2

                 |-------------->>    CON ESTA NOTA
|----------------|--|		   SE TERMINA LA CANCI=D3N
|----------------|--|	        Y LA GTR 2 CAMBIA DE CAPSULA
|------4---------4--|  RAPIDAMENTE(DE TREBLE A chord diagramA augmentedA BASS Y ASI MUCHAS VECES).
|-4----4----7----4--|
|-4----2----7----2--|                      =20
|-2---------5-------|              NOTA: DURANTE LA CANCI=D3N
				   ----  OCUP=C1 LA CAPSULA AGUDA(TREBLE).


ORDEN:

1. INTRO  	(Gtr 1 y 2)
2. VERSO 1	(Gtr 1 y 2)
3. INTRO 	(Gtr 1 y 2)
4. VERSO 2 	(Gtr 1 y 2)
5. INTRO  	(Gtr 1 y 2)
6. VERSO 3	(Gtr 1 y 2)
7. INTRO   	(Gtr 1 y 2)
8. PUNTEO FINAL (Gtr 1 hace INTRO)
9. OUTRO        (Gtr 1 y 2)


S=EDmbolos
--------
 h   - "hammer"
 s   - "slide"

Almost there ...

Sign in to get your own page with links to favourite songs and more. You are just one click away...

Login with Facebook Login with Google