Log in

One click and you are in

Login with Facebook Login with Google

Why sign up and log in

Guitar Tabs Explorer
At The Drive In tabs for Sleepwalk capsules

Guitar tabs with lyrics

artist: at the drive-in
album: relationship of command
song: sleepwalk capsules
tabbed by: Ahren Lanfor
 
this is my own work.
omar gtr1 (leftspeaker), jim gtr02 (right speaker)
 
key:
~- let ring
/- slide down
\- slide up
h- hammer on
p- pull off
bu- bend up
bd- bend down
^- also bend
p.m.*- palm mute
ps- pick scrape on string
h- naturaul harmonics
 
SLEEPWALK CAPSULES
normal tuning
 
1st verse:
 
gtr1:
distortion
A chord diagramE MajorE|-15-15--15-15-15-15-|-15-------------------------------------|
b|-15-15--15-15-15-15-|-15-14-14-14-14-14-12-14-14-14-14-14-15-|
g|-0--0---0--0--0--0--|-0--14-14-14-14-14-14-14-14-14-14-14-14-|
d|-14-14--14-0--x--x--|-x--------------------------------------|
a|-15-15--15-0--14-14-|-14-------------------------------------|
e|--------------15-15-|-15-------------------------------------|
 
gtr2:
distortion
A chord diagramE MajorE|-3-3--3-3-10-10-|-10--------------------------------------|
b|-3-3--3-3-10-10-|-10--------------------------------------|
g|-0-0--0-0-0--0--|-0---14-14-14-14-14-14-14-14-14-14-14-14-|
d|-2-2--2-0-9--9--|-9---x--x--x--x--x--x--x--x--x--x--x--x--|
a|-3-3--3-0-10-10-|-10--12-12-12-12-12-12-12-12-12-12-12-12-|
e|----------------|-----------------------------------------|
 

chorus:
 
gtr1:
distortion
A chord diagramE MajorE|---------2---------5-----------------------------|
b|-----------3-----5---5bu-------------------------|
g|-----4-4-----------------5-5-5-5-5-5-5-5-5-5-5-5-|
d|-2-2---------------------5-5-5-5-5-5-5-5-5-5-5-5-|
a|-------------5-5---------3-3-3-3-3-3-3-3-3-3-3-3-|
e|-------------------------------------------------|
 
gtr2:
distortion
A chord diagramE MajorE|---------------------------------------------------------|
b|---------------------------------------------------------|
g|-----------------7-7-7-7-7-7-7-7-5-5-5-5-5-5-5-5-5-5-5-5-|
d|-2-2-2-2-2-2-2-2-7-7-7-7-7-7-7-7-5-5-5-5-5-5-5-5-5-5-5-5-|
a|-2-2-2-2-2-2-2-2-5-5-5-5-5-5-5-5-3-3-3-3-3-3-3-3-3-3-3-3-|
e|-0-0-0-0-0-0-0-0-----------------------------------------|
 
2nd verse:
same as the 1st verse.
 

chorus:
 

bridge:
 
gtr1:
distortion, delay, wah
      p.m.***
A chord diagramE MajorE|-0------------3-------3-|
b|-0------------3-------3-|
g|-2------0-----0-------0-|
d|-2--------2-0---------0-|
a|-0----2-----2---------x-|
e|----0-------3---2h3-3---|
 
gtr2:
clean
A chord diagramE MajorE|-0--0------------------|
b|-0--0------------------|
g|-2--0------0-------0---|
d|-2--2--------0-------0-|
a|-0--2----2-------------|
e|----0--3-------2h3-----|
 
gtr1:
distortion, wah
this part is hard to hear sounds like he's playing one chord
and opening and closing his wah each time he strikes the chord.
you could just play what guitar 2 plays.
 
gtr2:
distortion
A chord diagramE MajorE|-------------------------|
b|-------------------------|
g|-------------------------|
d|-------------------------|
a|-------------------------|
e|-6-5/3-6-2-6-5/3-10bu-bd-|
 
3rd verse:
 
same as the 1st verse except gtr1 plays these 2 additional
notes.
 
gtr1:
A chord diagramE MajorE|-15-15-15----15-15-15----|
b|-15-15----15-15-15----15-|
g|-0--0--------0--0--------|
d|-14-14-------x--x--------|
a|-15-15-------14-14-------|
e|-------------15-15-------|
 
then chorus for the rest of the song and then end on this.
 
gtr1 & 2
A chord diagramE MajorE|--------------|
b|--------------|
g|--------------|
d|-2~~~~~~~~~bu-|
a|-2~~~~~~~~~bu-|
e|-0~~~~~~~~~bu-|

Other versions of Sleepwalk Capsules

Sleepwalk capsulesChords

Almost there ...

Sign in to get your own page with links to favourite songs and more. You are just one click away...

Login with Facebook Login with Google