Log in

One click and you are in

Login with Facebook Login with Google

Why sign up and log in

Guitar Tabs Explorer
At The Drive In tabs for Invalid litter dept

Guitar tabs with lyrics

artist: At The Drive-in
Album: Relationship Of Command
song: Invalid Litter Dept.
tabbed by: Ahren Lanfor

Drop A chord diagramD MajorD tuning

bend- ^
slide up- \

(this is my own work)
(I decided to actually listen to the song in slow motion with
the balance on the speakers set to the left for the first guitar
and the balace on the right for the second guitar.
It should be pretty acurate but I didn't feel like tabbing
the solo so just listen and remember it or something.
thanks.)
intro:

gtr1: clean, or slighty distorted (delay, phaser)

e|-picking-and-scraping-and-stuff-------|
b|--------------------------------------|
g|--------------------------------------|
d|--------------------------------------|
a|--------------------------------------|
d|--------------------------------------|

gtr2: piano


gtr1: clean, or slighty distorted (delay, phaser)

e|--------------------------------------|
b|-------10---------------------5-------|
g|---7----------------------3-----------|
d|-9---9------------------5---5---------|
a|--------------------------------------|
d|--------------------------------------|

gtr2: clean (delay)

e|--------------------------------------|
b|-------10---------------------5-------|
g|---7----------------------3-----------|
d|-9---9------------------5---5---------|
a|--------------------------------------|
d|--------------------------------------|

gtr1: clean, or slighty distorted (delay, phaser)

e|--------------------------------------|
b|-------10---------------------5-------|
g|---7----------------------3-----------|
d|-9---9------------------5---5---------|
a|--------------------------------------|
d|--------------------------------------|

gtr2: clean (delay)

e|--------------------------------------|
b|-------10---8---7---7-5-------5---3---|
g|---7----------------------3-----------|
d|-9---9----9---9---9-----5---5---5-----|
a|--------------------------------------|
d|--------------------------------------|

gtr1: clean, or slighty distorted (delay, phaser)

e|------------------------------0-0-0-0-0---|
b|-------10---------------------5-5-5-5-5---|
g|---7----------------------3---------------|
d|-9---9------------------5---5-------------|
a|------------------------------------------|
d|------------------------------------------|

gtr2: clean (delay)

e|------------------------------0-0-0-0-0---|
b|-------10---8---7---7-5-------5-5-5-5-5---|
g|---7----------------------3---------------|
d|-9---9----9---9---9-----5---5-------------|
a|------------------------------------------|
d|------------------------------------------|

Verse1:

gtr1: clean, or slightly distorted

e|------------------------------------------|
b|-------10---7-----------------------------|
g|---7------9---9---7---7-9-----------------|
d|-----9----------9---9-----7---------------|
a|----------------------------7\5-----------|
d|------------------------------------------|

gtr2: clean

e|------------------------------------------|
b|------------------------------------------|
g|------------------------------------------|
d|-------7-------7-----------7-------7-9-7--|
a|---7-9-----7-9---9-7---7-9-----7-9--------|
d|-0-------0-----------0-------0------------|

gtr1:

e|----------------------------------|
b|-----10---7-----------------------|
g|-7------9---9---7---7-9-----------|
d|---9----------9---9-----7---------|
a|--------------------------7\5-----|
d|----------------------------------|

gtr2:

e|----------------------------------|
b|-------------------------------7--|
g|---7---7---7---7---7---7---7-9----|
d|-9---9---9---9---9---9---9--------|
a|----------------------------------|
d|----------------------------------|


chorus:

gtr1: distorted

e|----------------------------------|
b|----------------------------------|
g|-9-9-7-7-7-7-12-12-12-11-11-11-11-|
d|----------------------------------|
a|----------------------------------|
d|----------------------------------|

|------------------------------------|
|-10-8-8-8-7-8-8-8-7-8-8-8-10-8-8-8--|
|-7--7-7-7-7-7-7-7-7-7-7-7-7--7-7-7--|
|------------------------------------|
|------------------------------------|
|------------------------------------|

gtr2: distorted

e|------------------------------------|
b|------------------------------------|
g|------------------------------------|
d|-0-9-12-0-9-12-0-9-12-0-9-12-0-9-12-|
a|-0-9-12-0-9-12-0-9-12-0-9-12-0-9-12-|
d|-0-9-12-0-9-12-0-9-12-0-9-12-0-9-12-|

|----------------------------------|
|----------------------------------|
|----------------------------------|
|-5-5-5-5-5-5-5-5-0-4-4-4-7-7-7-7--|
|-5-5-5-5-5-5-5-5-0-4-4-4-7-7-7-7--|
|-5-5-5-5-5-5-5-5-0-4-4-4-7-7-7-7--|

bit after 1st chorus:

gtr1: clean, or slighty distorted (delay, phaser)

e|--------------------------------------|
b|-------10---------------------5-------|
g|---7----------------------3-----------|
d|-9---9------------------5---5---------|
a|--------------------------------------|
d|--------------------------------------|

gtr2: clean (delay)

e|--------------------------------------|
b|-------10---8---7---7-5-------5---3---|
g|---7----------------------3-----------|
d|-9---9----9---9---9-----5---5---5-----|
a|--------------------------------------|
d|--------------------------------------|


verse2: repeat verse1 riffs again.


chorus: repeat chorus riffs again.


solo:

gtr1: distorted (delay)

e|-
b|-
g|-
d|-
a|-
d|-

gtr2: piano with delay.


verse3: repeat verse1 riffs again.


chorus: rpeat chorus riffs except at the end
of the last fiff on both guitars below.

gtr1: distorted

e|----------------------------------|
b|----------------------------------|
g|-9-9-7-7-7-7-12-12-12-11-11-11-11-|
d|----------------------------------|
a|----------------------------------|
d|----------------------------------|

|--------------------------------------|
|-10-8-8-8-7-8-8-8-7-8-8-8-10-8-8-8----|
|-7--7-7-7-7-7-7-7-7-7-7-7-7--7-7-7----|
|-----------------------------------9\-|
|-----------------------------------9\-|
|-----------------------------------9\-|

gtr2: distorted

e|------------------------------------|
b|------------------------------------|
g|------------------------------------|
d|-0-9-12-0-9-12-0-9-12-0-9-12-0-9-12-|
a|-0-9-12-0-9-12-0-9-12-0-9-12-0-9-12-|
d|-0-9-12-0-9-12-0-9-12-0-9-12-0-9-12-|

|------------------------------------|
|------------------------------------|
|------------------------------------|
|-5-5-5-5-5-5-5-5-0-4-4-4-7-7-7-7-9\-|
|-5-5-5-5-5-5-5-5-0-4-4-4-7-7-7-7-9\-|
|-5-5-5-5-5-5-5-5-0-4-4-4-7-7-7-7-9\-|


ending:

gtr1: distorted

e|------------------------------------------------|
b|------------------------------------------------|
g|------------------------------------------------|
d|-9-9-9-9-7-9--7-9-9-7-9--5-5-5-5-4-5--4-5-5-4-5-|
a|-9-9-9-9-7-9--7-9-9-7-9--5-5-5-5-4-5--4-5-5-4-5-|
d|-9-9-9-9-7-9--7-9-9-7-9--5-5-5-5-4-5--4-5-5-4-5-|

                     |^-^bend-^-^|
|-----------------------------------|
|-----10---7-----10---7-7-7-7-8-7-0-|
|---7----------7------7-7-7-7-7-7-0-|
|-9------9---9------9---------------|
|-----------------------------------|
|-----------------------------------|

gtr2: distorted

e|------------------------------------------------|
b|------------------------------------------------|
g|------------------------------------------------|
d|-9-9-9-9-7-9--7-9-9-7-9--5-5-5-5-4-5--4-5-5-4-5-|
a|-9-9-9-9-7-9--7-9-9-7-9--5-5-5-5-4-5--4-5-5-4-5-|
d|-9-9-9-9-7-9--7-9-9-7-9--5-5-5-5-4-5--4-5-5-4-5-|

|----------------------------------|
|--------------------7-7-7-7-8-7-0-|
|--------------------7-7-7-7-7-7-0-|
|-2-2-2-2-0-2--5-5-5-5-5-5-5-5-5-5-|
|-2-2-2-2-0-2--5-5-5-5-5-5-5-5-5-5-|
|-2-2-2-2-0-2--5-5-5-5-5-5-5-5-5-5-|

2nd half of ending:

gtr1: distorted (flanger or something)
      bend ^       bend ^   bend ^      bend ^
e|---------7------------7--------7-----------7---|
b|---------7------------7--------7-----------7---|
g|---7------------7--------------7-----------7---|
d|-9---9-7------9---9-7--------------------------|
a|-------------------------5-5-5-------5-5-5-----|
d|-----------------------------------------------|

                     |^-^bend-^-^|
|-----------------------------------|
|---7----------7------7-7-7-7-7-7-0-|
|---7----------7------7-7-7-7-7-7-0-|
|-9------9---9------9---------------|
|-----------------------------------|
|-----------------------------------|

gtr2: distorted

e|------------------------------------------------|
b|------------------------------------------------|
g|------------------------------------------------|
d|-9-9-9-9-7-9--7-9-9-7-9--5-5-5-5-4-5--4-5-5-4-5-|
a|-9-9-9-9-7-9--7-9-9-7-9--5-5-5-5-4-5--4-5-5-4-5-|
d|-9-9-9-9-7-9--7-9-9-7-9--5-5-5-5-4-5--4-5-5-4-5-|

|----------------------------------|
|--------------------7-7-7-7-8-7-0-|
|--------------------7-7-7-7-7-7-0-|
|-2-2-2-2-0-2--5-5-5-5-5-5-5-5-5-5-|
|-2-2-2-2-0-2--5-5-5-5-5-5-5-5-5-5-|
|-2-2-2-2-0-2--5-5-5-5-5-5-5-5-5-5-|

both guitars end with this:

e|------------|
b|------------|
g|------------|
d|-9~~~~~~~~--|
a|-9~~~~~~~~--|
d|-9~~~~~~~~--|

that's it!

Almost there ...

Sign in to get your own page with links to favourite songs and more. You are just one click away...

Login with Facebook Login with Google