Search tabs and chords

Search for song, artist or band

Log in

One click and you are in

Login with Facebook Login with Google

Why sign up and log in

Guitar Tabs Explorer
Astrid Lindgren guitar tabs for Vargsången acoustic

Intro

Tuning: Standard (E A D G B E)

Intro:
   A chord diagramE minorEm         A chord diagramE minorEm         A chord diagramA majorA            A chord diagramE minorEm             A chord diagramG MajorG         A chord diagramA majorA
e|-0--------|----------|------------|--------------|---------|-0-----0-------|
B|----0---0-|--0-----3-|--2---------|--0--------0--|-3----3--|-----3---------|
G|------0---|-----0----|------2---2-|-----0---0----|----0----|-----2---------|
D|----------|----------|--------2---|-------2------|---------|---------------|
A|----------|----------|--0---------|--------------|---------|--0------------|
E|-0--------|--0-------|------------|--0-----------|-3-------|---------------|

   A chord diagramB minorBm         A chord diagramB minorBm          A chord diagramE minorEm          A chord diagramE minorEm            A chord diagramA majorA          A chord diagramE minorEm
e|-2--------|--2--------|-0---------|-------------|----------|---------------|
B|---3---3--|-----3--3--|---0---0---|-0---3-------|-2--------|-0-------------|
G|-----4----|-----4--4--|-----0-----|---0---------|---2---2--|---------------|
D|-----4----|-----4--4--|-----------|-------------|-----2----|----7---9------|
A|-2--------|--2--------|-----------|-------------|-0--------|----10---------|
E|----------|-----------|-0---------|-0-----------|----------|-0-------------|

   A chord diagramG MajorG         A chord diagramA majorA           A chord diagramBB
e|---------|-----------|-----------------------------------------------------|
B|------0--|-----------|-----------------------------------------------------|
G|---------|-----0-----|------7----------------------------------------------|
D|-5-------|-7---------|-4---------------------------------------------------|
A|-7-------|-9---------|-6---------------------------------------------------|
E|-8-------|-10--------|-7----0----------------------------------------------|

Other versions of Vargsången Acoustic

VargsangenTabs

Almost there ...

Sign in to get your own page with links to favourite songs and more. You are just one click away...

Login with Facebook Login with Google