Guitar Tabs Explorer
Rick Astley bass tabs for Never gonna give you up

Never Gonna Give You Up bass tab


2.8 / 5 [4 votes]

Never Gonna Give You Up bass tab by Rick Astley

Bass tabs

Print

Tuning: Standard (E A D G)

Key: C#

Difficulty: Intermediate

-------------------------------------------------------------------------------
                    Never Gonna Give You Up - Rick Astley
-------------------------------------------------------------------------------

Submitted by: Paddy

Tuning: standard EADG

Intro:
G|------------------------------------------------------------------------------|
D|-----------11-10---------------------------------11-10------9-9-10-11---------|
A|-----------------11--11----11-11----------------------------------------------|
E|---9-99-9-------------------------11--11-11--11-------------------------------|

                                                          >x2
G|------------------------------------------------------------------------------|
D|-----------11-10--------------------------------------------------------------|
A|-----------------11--11----11-11----------------------9-8---------------------|
E|---9-99-9-------------------------11-11-11--11-11-----------------------------|



Verse 1:
G|-------------------------------------------------------------------|
D|-------8--8-8--8-11-10-----8------8---8--8-8--8-11-10--------------|
A|-9-11------------------11------------------------------------------|
E|-------------------------------11----------------------------------|

                                                          x2
G|-------------------------------------------------------------------|
D|-------8--8-8--8-11-10-----8----11-10-----------8-10---------------|
A|-9-11------------------11--------------11-11-11--------------------|
E|-------------------------------------------------------------------|



Bridge:
G|-------8----8---11-10-------8--------------------------------------|
D|-10-11---11-------------11--------------8------8--11--10-----------|
A|--------------------------------10-11-------11---------------------|
E|-------------------------------------------------------------------|
                                                          x2