Guitar Tabs Explorer
The Associates bass tabs for Deeply concerned

Deeply Concerned bass tab


Be the first to rate


Bassm99Author: Bassm99

Deeply Concerned bass tab by The Associates

`Deeply Concerned` from the album `The Affectionate Punch` (1980). Written by Mackenzie/Rankine.

Bass tabs

Print
  • Tuning: Standard tuning
  • Difficulty: Novice

Tabbed by: bassm99
E-mail: alanmatthews1966@yahoo.co.uk

Tuning: E, A, D, G

Intro:

G|--------------------------------------------------------------------------|
D|--------------------------------------------------------------------------|
A|--5-(x1)-----5----5----7----7-(x4)----------------------------------------|
E|-----------3----3----3----3-----------------------------------------------|

Verse: (Play 8 Times)

G|--------------------------------------------------------------------------|
D|--------------------------------------------------------------------------|
A|----5----5----7----7------------------------------------------------------|
E|--3----3----3----3--------------------------------------------------------|

Chorus:

G|--------------------------------------------------------------------------|
D|--------------------------------------------------------------------------|
A|--------------------------------------------------------------------------|
E|--5-5-5-5-5-5-5-5-(x3)---1------------------------------------------------|

Repeat Intro:

G|--------------------------------------------------------------------------|
D|--------------------------------------------------------------------------|
A|--5-(x1)-----5----5----7----7-(x2)----------------------------------------|
E|-----------3----3----3----3-----------------------------------------------|

Repeat Verse:

Repeat Chorus:

Bridge:

G|--------------------------------------------------------------------------|
D|--------------------------------------------------------------------------|
A|--5-(x1)-----5----5----7----7-(x12)---------------------------------------|
E|-----------3----3----3----3-----------------------------------------------|

Chorus:

G|--------------------------------------------------------------------------|
D|--------------------------------------------------------------------------|
A|-----------------------------4-------8------------------------------------|
E|--5-5-5-5-5-5-5-5-(x3)---1-------4----------------------------------------|

Outro: (Fades Out to End)

G|--------------------------------------------------------------------------|
D|--------------------------------------------------------------------------|
A|--5-(x1)-----5----5----7----7-(x35)---------------------------------------|
E|-----------3----3----3----3-----------------------------------------------|

Comment this song and these bass tabs

Do you have corrections, comments on the bass tabs, thoughts about the song or a message to the author? Write them below.