Log in

One click and you are in

Login with Facebook Login with Google

Why sign up and log in

Guitar Tabs Explorer
Assassin tabs for Assassin

Intro

------------0----------------------0----------------------0-----------------|
---------0---0----0---0---------0---0----0---0---------0---0----0---0-------|
--------2--------2---2---------2--------2---4---------2--------2---2--------|
-------2--------3---2---------2--------3---5---------2--------3---2---------|
-3-2-0---------0--------3-2-0---------0--------3-2-0---------0--------3-2-0-|

-----0------------0---------0-------0-------0-------0-------0-------3-2-2h3-|
------0----------3-3-------0-0-----0-0-----0-0-----0-0-----0-0-----3--------|
---0---0----0---0---0-----0---0---0---0---0---0---0---0---0---0---0---------|
--2--------2---4-----4---5-----5-5-----5-5-----5-5-----5-2-----2-0----------|
-2--------3---5---------7-------6-------5-------4-------3-------3-----------|
---------0------------------------------------------------------------------|

-2------0-------0-------0-------0-------0-------3-2-2h3-2-------------------|
--3----0-0-----0-0-----0-0-----0-0-----0-0-----3---------3------------------|
------0---0---0---0---0---0---0---0---0---0---0-----------------------------|
-----5-----5-5-----5-5-----5-5-----5-2-----2-0---------------2--------------|
----7-------6-------5-------4-------3-------3----------------2--------------|
-------------------------------------------------------------0--------------|

Almost there ...

Sign in to get your own page with links to favourite songs and more. You are just one click away...

Login with Facebook Login with Google