Log in

One click and you are in

Login with Facebook Login with Google

Why sign up and log in

Guitar Tabs Explorer
Asking Alexandria tabs for Circled by the wolves

Circled By The Wolves tab by Asking Alexandria

Asking Alexandria tabs for Circled by the wolves

Guitar tabs

E------------------------------------------------------------------------------------------------------------|
B--------------------------------------------------------------------------------------------- --------------|
G------------------------------------------------------------15-15-15-15-15-15-15-15-14-14-14-14-12-12-12-12-|
D-------------------------------------------------------------------------------------------------------- ---|
A---5---------------7---7---7h8--5-------------------8h7-3h5-13-13-13-13-13-13-13-13-12-12-12-12-10-10-10-12-|
E-----0-0-7-8-5-0-0---0---0--------0-0-7-8-5-0-0-5h7------------------------------------------------------ --|

INTRO

After intro

E------------------------------------------------------------------------------------------------------------|
B------------------------------------------------------------------------------------------------------------|
G-10-10-10-10-10-----------------------12-12-12-12-15-15-14-14--10-10-10------------  -10-10-10-9-9-5-5------|
D---------------------------------------------------------------------------------------------------------0--|
A--8-8-8-8-8-8-8-0-000-000-00----------10-10-10-10-13-13-12-12--8-8-8-8-8---------------8-8-8-8-7-7-3-3---0--|
E----------------0-000-000-00---------------------------------------------0-000-000-00--------------------0--|

CHORUS
E-------------------------------------------------------------------------|
B-------------------------------------------------------------------------|
G- 10 10 10 10-12-12-12-12-14-14-14-14-12-12-12-12-12---------------------|
D-------------------------------------------------------------------------|
A---8-8-8-8-8-10-10-10-10-12-12-12-12-10-10-10-10-10-------------0-0-0-0--|
E--------------------------------------------------------7h0-8h0-0-0-0-0--|

AFTER THAT GOES BACK TO INTRO FOR A chord diagramA augmentedA BREAKDOWN
AFTER AFTER THAT BREAKDOWN IS ANOTHER ONE


E---------------------------------------------------------------------------------------------|
B---------------------------------------------------------------------------------------------|
G-----------------------------------------------12---------------------------------7----5-----|
D-------------------------10-12-10--------------12---------------------------------7----5--0--|
A-----------------------------------12-10-10-10-10------------------------------0--5-0--3--0--|
E------3h0-0-3-5-6-3h0-0------------------------------REPEAT UNTIL THIS CHANGE--0----0-----0--|

GOES TO CHORUS AFTER THAT

The rest is really just break down except for the slow part below!


E------------------------------------------------------------------------------------------------------------|
B------------------------------------------------------------------------------------------------------------|
G------------------------------------------------------------------------------------------------------------|
D---0-0-0-0-0--0-0-0-0-0-8-8-8-8-8-5-5-5-5-5-----------------------------------------------------------------|
A---0-0-0-0-0--0-0-0-0-0-8-8-8-8-8-5-5-5-5-5-----------------------------------------------------------------|
E---0-0-0-0-0--0-0-0-0-0-8-8-8-8-8-5-5-5-5-5-----------------------------------------------------------------|

TAB MADE BY KEVIN COLEMAN
CHECK OUT MY COVER OF THIS SONG AND SUB TO MY BANDS CHANNEL!
https://www.youtube.com/watch v=UNhpP9Voi8M

Almost there ...

Sign in to get your own page with links to favourite songs and more. You are just one click away...

Login with Facebook Login with Google