Search tabs and chords

Search for song, artist or band

Log in

One click and you are in

Login with Facebook Login with Google

Why sign up and log in

Guitar Tabs Explorer
Remain Ashes guitar tabs for Lead you there acoustic

Intro

Tuning: Standard (E A D G B E)

"LEAD YOU THERE"
by Ashes Remain
tabbed by:    Dropdeee
tuning:       Standard (A chord diagramE MajorE A chord diagramA majorA A chord diagramD MajorD A chord diagramG MajorG A chord diagramBB e)
effects:      Clean Electric
video:        https://youtu.be/N45qdk_xmj8


 Intro:

             ^   ^   ^  v ^ v           ^   ^  v ^  v ^ v
e|---------|-----0---0----------------|-----0----0----------------|
B|---------|-----0---0----------------|-----1--1-1--1-1-1---------|
G|---------|-0---0---0--0-0-0---------|-0---0--0-0--0-0-0---------|
D|-2h4-2p0-|-2---2------2-2-2-2h4-2p0-|-2---2----2----2-2---------|
A|---------|-2---2------2-2-2---------|-3---3----3--------3p2-3p2-|
E|---------|-----0--------------------|-----0----0----------------|

       ^  ^  ^  v ^  v     ^   ^  v ^  v ^ v
e|-----3-----3--3-3--3p0-|-2---2----2----------------|
B|-----3-----3--3-3--3p0-|-3---3--3-3--3-3-3---------|
G|-----0--0--0--0-0--0---|-2---2--2-2--2-2-2---------|
D|-----0--0-------0--0---|-0---0-------0-0-0-2h4-2p0-|
A|-----2--2-------2--2p0-|-0-------------------------|
E|-3---3----------3--3p0-|-0-------------------------|

 second time is played slightly different

   ^   ^  V ^  v ^ v           ^   ^  v ^  v ^ v
e|----------0--0-0-0---------|-----0--0-0--0-0-0---------|
B|-0---0--0-0--0-0-0---------|-1---1--1-1--1-1-1---------|
G|-0---0--0-0--0-0-0---------|-0---0--0-0--0-0-0---------|
D|-2---2-------2-2-2-2h4-2p0-|-2---2----2----------------|
A|-2---2---------------------|-3---3----3--------3p2-3p2-|
E|-----0---------------------|-----0----0----------------|

       ^  v ^  v ^ v ^        ^   ^  v ^  v ^ v
e|-----3----3--3-3-3-3------|-2---2----2----------------|
B|-----3----3--3-3-3-3------|-3---3--3-3--3-3-3---------|
G|-----0--0-0--0-0-0-0--0---|-2---2--2-2--2-2-2---------|
D|-----0--0----------0--0---|-0---0-------0-0-0-2p0-2p0-|
A|-----2--2----------2--2p0-|-0-------------------------|
E|-3---3-------------3------|-0-------------------------|


************************************

| ^   Down strum
| v   Up strum
| h   Hammer-on
| p   Pull-off

************************************

Almost there ...

Sign in to get your own page with links to favourite songs and more. You are just one click away...

Login with Facebook Login with Google