Log in

One click and you are in

Login with Facebook Login with Google

Why sign up and log in

Guitar Tabs Explorer
Ash tabs for Shark

Guitar tabs with lyrics

Album: Free all angels
Tabbed by: Colin Boylan (HairyJapeneseGoldfish)

Key________________
|h = hammer on      |
|~ = vibratum       |
|p = pull off       |
|s = slide          |
|/ = string scratch |
|r = release        |
|___________________|
INTRO :
e|-------------------------------------------------------
b|----------------------------[ i get feedback by--------
g|--2^~~~wahwahwah + Feedback--pushing the toe of--------
d|-----------------------------wah pedal and tip---------
a|-----------------------------the head of guitar--------
A chord diagramE MajorE|-----------------------------of the top corner of amp]-

BASE LINE :
g|--------------------------------------------------
d|--------------------------------------------------
a|--------------------------------------------------
A chord diagramE MajorE|--5-5--8-8--5-5--2-2---5-5-5---0-0-0--------------

THEN GUITAR 1 COMES IN :   VERSE w/ jet dist.
e|--------------------------------------------------
b|--------------------------------------------------
g|--------------------------------------------------
d|--------------------7-7--10-10---7-7----4-4-------
a|--/-/-/-/-/-\-\-\---7-7--10-10---7-7----4-4-------
A chord diagramE MajorE|-/-/-/-/-/---\-\-\--5-5---8-8----5-5----2-2-------

e|--------------------------------------------------
b|--------------------------------------------------
g|--------------------------------------------------
d|--7-7-7-7---2-2-2---------------------------------
a|--7-7-7-7---2-2-2---------------------------------
A chord diagramE MajorE|--5-5-5-5---0-0-0---------------------------------

GUITAR 2 : Violent minds ..........
e|--------------------------------------------------
b|--------------------------------------------------
g|--7-7^r----7-7^r-----7-7^r-------7^r7^r-----------
d|--------------------------------------------------
a|--------------------------------------------------
A chord diagramE MajorE|--------------------------------------------------

GUITAR 1 :       I know what i want....
e|--------------------------------------------------
b|--------------------------------------------------
g|--------------------------------------------------
d|--5-5-5-5-5-5-5-5-5-5--7-7-7-7-7-7-7-7-7-7-7------
a|--5-5-5-5-5-5-5-5-5-5--7-7-7-7-7-7-7-7-7-7-7------
A chord diagramE MajorE|--3-3-3-3-3-3-3-3-3-3--5-5-5-5-5-5-5-5-5-5-5------

GUITAR 2 :       I know what i want....
e|--------------------------------------------------
b|-----8--5-----------------------------------------
g|--7---------7^------------------------------------
d|----------------7~~~------------------------------
a|--------------------------------------------------
A chord diagramE MajorE|--------------------------------------------------

SOLO :  w/crybaby and w/ verse chords
e|--------------------------------------------------
b|--------------------------------------------------
g|--------------------------------------------------
d|--------------------------5---5--7-7-7-7-7-5----5-
a|---------------------5-7----7----------------7----
A chord diagramE MajorE|--8-5-8-5--3-0-3-0--------------------------------

  This solo is not accurate really jus go mental with
  these notes in "A" scale and then this unison bend
  If you no your scale make up ur own thats what i did
e|--------------------------------------------------
b|--5------5------------------------------------------
g|--7^^^^--7^^^^^^^---5-h-7-p-5----------------------
d|-------------------------------7-5-7---------------
a|---------------------------------------------------
A chord diagramE MajorE|--------------------------------------------------

INTERLUDE BIT : GUITAR 1
e|--------------------------------------------------
b|--------------------------------------------------
g|--------------------------------------------------
d|--4-4-4-4-4-4-4-4----4-4-4-4-4-4-4-4--------------
a|--2-2-2-2-2-2-2-2----2-2-2-2-2-2-2-2--------------
A chord diagramE MajorE|--------------------------------------------------

GUITAR 2
e|--------------------------------------------------
b|---7------------------7-----------------------------
g|---9-^----------------9-^--------------------------
d|--------------------------------------------------
a|--------------------------------------------------
A chord diagramE MajorE|--------------------------------------------------

All the rest is above repeat over and over until your
ears go red and ur eyes come out of ur head. That it
My solo is not perfect but sure hey nobodys perfect with
the crybaby it makes it totaly unaudible. Complaints,
comments, hate mail bla bla address above. Enjoy

Colin a big irish fan!!!!! save the japenese goldfish       !

Almost there ...

Sign in to get your own page with links to favourite songs and more. You are just one click away...

Login with Facebook Login with Google