Log in

One click and you are in

Login with Facebook Login with Google

Why sign up and log in

Guitar Tabs Explorer
Ash bass tabs for Goldfinger

Bass tabs

Key: Bb


Intro:

G|-----------------|-----------------|
D|-----------------|-----------------|
A|-1-1-1-1-1-1-1-1-|-1-1-1-1-1-1-1-1-|
E|-----------------|-----------------|
  1 & 2 & 3 & 4 &  1 & 2 & 3 & 4 &

G|-----------------|-----------------|-----------------|-----------------|
D|-----------------|-----------------|-----------------|-----------------|
A|---------2-2-2---|---------2-2-2---|---------2-2-2---|---------2-2-2-2-|
E|-4---4-4-------4-|-2---2-4-------4-|-2---2-4-------4-|-2---2-4---------|
  1 & 2 & 3 & 4 &  1 & 2 & 3 & 4 &  1 & 2 & 3 & 4 &  1 & 2 & 3 & 4 &

G|-----------------|-----------------|-----------------|-----------------|
D|-----------------|-----------------|-----------------|-----------------|
A|-4-4-4-4-4-4-4---|-1-1-1-1-1-1-1---|---------2-2-2---|---------2-2-2---|
E|---------------4-|---------------2-|-4---4-4-------4-|-2---2-4-------4-|
  1 & 2 & 3 & 4 &  1 & 2 & 3 & 4 &  1 & 2 & 3 & 4 &  1 & 2 & 3 & 4 &

G|-----------------|-----------------|-----------------|-----------------|
D|-----------------|-----------------|-----------------|-----------------|
A|---------2-2-2---|---------2-2-2-2-|-4-4-4-4-4-4-4---|-1-1-1-1-1-1-1-1-|
E|-2---2-4-------4-|-2---2-4---------|---------------4-|-----------------|
  1 & 2 & 3 & 4 &  1 & 2 & 3 & 4 &  1 & 2 & 3 & 4 &  1 & 2 & 3 & 4 &


Verse 1:

 "Move closer "
G|-----------------|-----------------|-----------------|-----------------|
D|-----------------|-----------------|-----------------|-----------------|
A|-1---------1-1---|---------------0-|-3-3-3-----------|-1-1-1-1-1-1-1-1-|
E|---------------0-|-3---------3-3---|-------0-1-1-1-1-|-----------------|
  1 & 2 & 3 & 4 &  1 & 2 & 3 & 4 &  1 & 2 & 3 & 4 &  1 & 2 & 3 & 4 &

G|-----------------|-----------------|-----------------|-----------------|
D|-----------------|-----------------|-----------------|-----------------|
A|-1---------1-1---|---------------0-|-3-3-3-----------|-----------------|
E|---------------0-|-3---------3-3---|-------0-1-1-1-1-|-0-0-3-5---5-5-5-|
  1 & 2 & 3 & 4 &  1 & 2 & 3 & 4 &  1 & 2 & 3 & 4 &  1 & 2 & 3 & 4 &

G|-----------------|-----------------|-----------------|
D|-----------------|-----------------|-----------------|
A|-3-3-3-----------|-1-1-1-1-1-1-1-1-|-1-1-1-1-1-1-1---|
E|-------0-1-1-1-1-|-----------------|---------------2-|
  1 & 2 & 3 & 4 &  1 & 2 & 3 & 4 &  1 & 2 & 3 & 4 &

Chorus:

 "night "
G|-----------------|-----------------|-----------------|-----------------|
D|-----------------|-----------------|-----------------|-----------------|
A|---------2-2-2---|---------2-2-2---|---------2-2-2---|---------2-2-2-2-|
E|-4---4-4-------4-|-2---2-4-------4-|-2---2-4-------4-|-2---2-4---------|
  1 & 2 & 3 & 4 &  1 & 2 & 3 & 4 &  1 & 2 & 3 & 4 &  1 & 2 & 3 & 4 &

G|-----------------|-----------------|-----------------|-----------------|
D|-----------------|-----------------|-----------------|-----------------|
A|-4-4-4-4-4-4-4---|-1-1-1-1-1-1-1---|---------2-2-2---|---------2-2-2---|
E|---------------4-|---------------2-|-4---4-4-------4-|-2---2-4-------4-|
  1 & 2 & 3 & 4 &  1 & 2 & 3 & 4 &  1 & 2 & 3 & 4 &  1 & 2 & 3 & 4 &

G|-----------------|-----------------|-----------------|-----------------|
D|-----------------|-----------------|-----------------|-----------------|
A|---------2-2-2---|---------2-2-2-2-|-4-4-4-4-4-4-4---|-1-1-1-1-1-1-1-1-|
E|-2---2-4-------4-|-2---2-4---------|---------------4-|-----------------|
  1 & 2 & 3 & 4 &  1 & 2 & 3 & 4 &  1 & 2 & 3 & 4 &  1 & 2 & 3 & 4 &


Verse 2:

 "Down in the "
G|-----------------|-----------------|-----------------|-----------------|
D|-----------------|-----------------|-----------------|-----------------|
A|-1---------1-1---|---------------0-|-3-3-3-----------|-1-1-1-1-1-1-1-1-|
E|---------------0-|-3---------3-3---|-------0-1-1-1-1-|-----------------|
  1 & 2 & 3 & 4 &  1 & 2 & 3 & 4 &  1 & 2 & 3 & 4 &  1 & 2 & 3 & 4 &

G|-----------------|-----------------|-----------------|-----------------|
D|-----------------|-----------------|-----------------|-----------------|
A|-1---------1-1---|---------------0-|-3-3-3-----------|-----------------|
E|---------------0-|-3---------3-3---|-------0-1-1-1-1-|-0-0-3-5---5-5-5-|
  1 & 2 & 3 & 4 &  1 & 2 & 3 & 4 &  1 & 2 & 3 & 4 &  1 & 2 & 3 & 4 &

G|-----------------|-----------------|-----------------|
D|-----------------|-----------------|-----------------|
A|-3-3-3-----------|-1-1-1-1-1-1-1-1-|-1-1-1-1-1-1-1---|
E|-------0-1-1-1-1-|-----------------|---------------2-|
  1 & 2 & 3 & 4 &  1 & 2 & 3 & 4 &  1 & 2 & 3 & 4 &


Chorus:

 "night "
G|-----------------|-----------------|-----------------|-----------------|
D|-----------------|-----------------|-----------------|-----------------|
A|---------2-2-2---|---------2-2-2---|---------2-2-2---|---------2-2-2-2-|
E|-4---4-4-------4-|-2---2-4-------4-|-2---2-4-------4-|-2---2-4---------|
  1 & 2 & 3 & 4 &  1 & 2 & 3 & 4 &  1 & 2 & 3 & 4 &  1 & 2 & 3 & 4 &

G|-----------------|-----------------|-----------------|-----------------|
D|-----------------|-----------------|-----------------|-----------------|
A|-4-4-4-4-4-4-4---|-1-1-1-1-1-1-1---|---------2-2-2---|---------2-2-2---|
E|---------------4-|---------------2-|-4---4-4-------4-|-2---2-4-------4-|
  1 & 2 & 3 & 4 &  1 & 2 & 3 & 4 &  1 & 2 & 3 & 4 &  1 & 2 & 3 & 4 &

G|-----------------|-----------------|-----------------|-----------------|
D|-----------------|-----------------|-----------------|-----------------|
A|---------2-2-2---|---------2-2-2-2-|-4-4-4-4-4-4-4---|-1-1-1-1-1-1-1-1-|
E|-2---2-4-------4-|-2---2-4---------|---------------4-|-----------------|
  1 & 2 & 3 & 4 &  1 & 2 & 3 & 4 &  1 & 2 & 3 & 4 &  1 & 2 & 3 & 4 &


Solo:

G|-----------------|-----------------|-----------------|-----------------|
D|-----------------|-----------------|-----------------|-----------------|
A|-1-1-1/6---6-6-6-|-6-6-6-6-6-6-6-5-|-1-1-1/6---6-6-6-|-6-6-6-6-6-6-6-5-|
E|-----------------|-----------------|-----------------|-----------------|
  1 & 2 & 3 & 4 &  1 & 2 & 3 & 4 &  1 & 2 & 3 & 4 &  1 & 2 & 3 & 4 &

G|-----------------|-----------------|-----------------|-----------------|
D|-----------------|-----------------|-----------------|-----------------|
A|-1-1-1/6---6-6-6-|-6-6-6-6-6-6-6-5-|-1-1-1/6---6-6-6-|-6-6-6-6-6-6-6-5-|
E|-----------------|-----------------|-----------------|-----------------|
  1 & 2 & 3 & 4 &  1 & 2 & 3 & 4 &  1 & 2 & 3 & 4 &  1 & 2 & 3 & 4 &


Verse 2:

 "I'm writing "
G|-----------------|-----------------|-----------------|-----------------|
D|-----------------|-----------------|-----------------|-----------------|
A|-----------------|---------------0-|-3-3-3-----------|-1-1-1-1-1-1-1-1-|
E|-6---------6-6-0-|-3---------3-3---|-------0-1-1-1-1-|-----------------|
  1 & 2 & 3 & 4 &  1 & 2 & 3 & 4 &  1 & 2 & 3 & 4 &  1 & 2 & 3 & 4 &

G|-----------------|-----------------|-----------------|-----------------|
D|-----------------|-----------------|-----------------|-----------------|
A|-1---------1-1---|---------------0-|-3-3-3-----------|-----------------|
E|---------------0-|-3---------3-3---|-------0-1-1-1-1-|-0-0-3-5---5-5-5-|
  1 & 2 & 3 & 4 &  1 & 2 & 3 & 4 &  1 & 2 & 3 & 4 &  1 & 2 & 3 & 4 &

G|-----------------|-----------------|-----------------|
D|-----------------|-----------------|-----------------|
A|-3-3-3-----------|-1-1-1-1-1-1-1-1-|-1-1-1-1-1-1-1---|
E|-------0-1-1-1-1-|-----------------|---------------2-|
  1 & 2 & 3 & 4 &  1 & 2 & 3 & 4 &  1 & 2 & 3 & 4 &


Chorus:

 "night "
G|-----------------|-----------------|-----------------|-----------------|
D|-----------------|-----------------|-----------------|-----------------|
A|---------2-2-2---|---------2-2-2---|---------2-2-2---|---------2-2-2-2-|
E|-4---4-4-------4-|-2---2-4-------4-|-2---2-4-------4-|-2---2-4---------|
  1 & 2 & 3 & 4 &  1 & 2 & 3 & 4 &  1 & 2 & 3 & 4 &  1 & 2 & 3 & 4 &

G|-----------------|-----------------|-----------------|-----------------|
D|-----------------|-----------------|-----------------|-----------------|
A|-4-4-4-4-4-4-4---|-1-1-1-1-1-1-1---|---------2-2-2---|---------2-2-2---|
E|---------------4-|---------------2-|-4---4-4-------4-|-2---2-4-------4-|
  1 & 2 & 3 & 4 &  1 & 2 & 3 & 4 &  1 & 2 & 3 & 4 &  1 & 2 & 3 & 4 &

G|-----------------|-----------------|-----------------|-----------------|
D|-----------------|-----------------|-----------------|-----------------|
A|---------2-2-2---|---------2-2-2-2-|-4-4-4-4-4-4-4---|-1-1-1-1-1-1-1-1-|
E|-2---2-4-------4-|-2---2-4---------|---------------4-|-----------------|
  1 & 2 & 3 & 4 &  1 & 2 & 3 & 4 &  1 & 2 & 3 & 4 &  1 & 2 & 3 & 4 &

G|-----------------|-----------------|-----------------|-----------------|
D|-----------------|-----------------|-----------------|-----------------|
A|---------2-2-2---|---------2-2-2---|---------2-2-2---|---------2-2-2-2-|
E|-4---4-4-------4-|-2---2-4-------4-|-2---2-4-------4-|-2---2-4---------|
  1 & 2 & 3 & 4 &  1 & 2 & 3 & 4 &  1 & 2 & 3 & 4 &  1 & 2 & 3 & 4 &

G|-----------------|-----------------|-----------------|-----------------|
D|-----------------|-----------------|-----------------|-----------------|
A|-4-4-4-4-4-4-4---|-1-1-1-1-1-1-1---|---------2-2-2---|---------2-2-2---|
E|---------------4-|---------------2-|-4---4-4-------4-|-2---2-4-------4-|
  1 & 2 & 3 & 4 &  1 & 2 & 3 & 4 &  1 & 2 & 3 & 4 &  1 & 2 & 3 & 4 &

G|-----------------|-----------------|-----------------|-----------------|
D|-----------------|-----------------|-----------------|-----------------|
A|---------2-2-2---|---------2-2-2-2-|-4-4-4-4-4-4-4---|-1---------------|
E|-2---2-4-------4-|-2---2-4---------|---------------4-|-----------------|
  1 & 2 & 3 & 4 &  1 & 2 & 3 & 4 &  1 & 2 & 3 & 4 &  1 & 2 & 3 & 4 &

☠☠☠☠☠☠☠☠☠☠☠☠☠☠☠☠☠☠☠☠☠☠☠☠☠☠☠☠☠☠☠☠☠☠*

| /  Slide up

☠☠☠☠☠☠☠☠☠☠☠☠☠☠☠☠☠☠☠☠☠☠☠☠☠☠☠☠☠☠☠☠☠☠*

Almost there ...

Sign in to get your own page with links to favourite songs and more. You are just one click away...

Login with Facebook Login with Google