Log in

One click and you are in

Login with Facebook Login with Google

Why sign up and log in

Guitar Tabs Explorer
As I Lay Dying bass tabs for 94 hours

Bass tabs

Intro
F----------------------------------------------------------------------|
C----------------------------------------------------------------------|
G----------------------------------------------------------------------|
C-0--0-0-0-0------0--0-0-0-0-------------------------------------------|
Verse x4
F----------------------------------------------------------------------|
C-----3-7-3-5--3h2p3-2----3-7-3-5-3-2-2-0------------------------------|
G----------------------------------------------------------------------|
C-0-0------------------------------------------------------------------|


Bridge
F----------------------------------------------------------------------|
C----------------------------------------------------------------------| x3
G----------------------------------------------------------------------|
C-0-----0--0-0-0-0--0-0-0-0-0--0--0----0--0-0-0-0--0-0-0-0-0-0--0--0---|

F--------------------------------------|
C--------------------------------------|
G--------------------------------------|
C-0-0-0-0-0---0--0-0-0-0---------------|

F-------------------------------------------|
C-------------------------------------------| x7
G-------------------------------------------|
C-0-0-0-0-0-00000-0-0-0-0-0-0000-0----------|


Verse x5


Bridge 2
F------------------------|
C------------------------| x4
G------7-8---------------|
C-0-0-------8-10---------|


Bridge 3 x2
F---------------------|
C---------------------|
G---------------------|
C-0---0----8-10-7-----|


Bridge 4 x4
F----------------------------------------|
C----------------------------------------|
G----------------------------------------|
C-0-0-0--0-0-0--0-0---8-8-8--10-10-10-7-7|

F---|
C---|
G---|
C-0-|

Almost there ...

Sign in to get your own page with links to favourite songs and more. You are just one click away...

Login with Facebook Login with Google