Log in

One click and you are in

Login with Facebook Login with Google

Why sign up and log in

Guitar Tabs Explorer
As Cities Burn tabs for Thus from my lips by yours my sin is purged

Thus From My Lips By Yours My Sin Is Purged tab - As Cities Burn

As Cities Burn tabs for Thus from my lips by yours my sin is purged

Guitar tabs

As Cities Burn - Thus From My Lips, By Yours, My Sin Is Purged
Copyright © 2005 Solid State Records
Drop A chord diagramD MajorD Tuning D-A-D-G-B-E

s=slide
b=bend
sd=slide down
su=slide up
h=hammer on
p=pull off
Intro
G[-3-------3-------]
D[--5-------5------]
A[---5-------5-----]
D[----5-------5----]


Verse 1
Gtr.2///// Gtr.1///////////////
G[-8-----7------3-3-3-3-3-3-3-----]
D[-8-5-8-x--1s3--7-7-7-7-7-7-7----]
A[-6-5-8-5------------------------]x2
D[---5-8--------------------------]
Then
Gtr. 2
D[------12-------------------------]
A[-8s10-------7/7/7/7/7/7/7bbbb----]
Gtr. 1
E[-10----10----10-------------------------]
B[---8-----8-----8--8---------------------]
G[----10----10----10----------------------]
D[---------------------7/7/7/7/7/7/7/7----]
A[---------------------6/6/6/6/6/6/6/6----]
D[---------------------7/7/7/7/7/7/7/7----]
Then
G[-8-----15----]
D[-5-5--x12-5--]
A[-6-5--x13-5--]x6( )
D[-5-5--x12-5--]

G[-10s8/8-15sd--]
D[--7s5/5-12sd--]
A[--8s6/6-13sd--]
D[--7s5/5-12sd--]
Then
Gtr. 2
G[-5sd---5sd---5sd---7s5/5-12sd--]
D[-5sd---5sd---5sd---7s5/5-12sd--]
A[-6sd---6sd---6sd---8s6/6-13sd--]x2
D[-5sd---5sd---5sd---7s5/5-12sd--]
Gtr. 1
play this after every 5655sd
G[-3/3/3-------]
D[-5/5/5-------]
A[-5/5/5-------]

Interlude
Gtr. 1
E[-5----------5----------5----------8/5-----------]
B[--3----------3----------3------------3----------]
G[----5/0-5/0----5/0-5/0----5/0-5/0------5/0-5/0--]x2
D[------------------------------------------------]

E[-----10-----------------5--------------------]
B[-------8--8--8-----------3-------------------]
G[-5su----10-10----5h7p5-----5/0-5/0-----2-3---]
D[------------------------------------1h3-3-3--]

E[-10------------8h10-15---------------17-------------]
B[---8--8--8--6s8-------13---------------15-----------]
G[----10-10----------------15/12-15/12------17--17----]
D[--------------------------------------------17--17--]

E[--10-----------------5--------------------]
B[----8--8--8-----------3-------------------]
G[-----10-10----5h7p5-----5/0-5/0-----2-3---]
D[---------------------------------1h3-3-3--]

E[-10------------8h10-15---------------17-------------]
B[---8--8--8--6s8-------13---------------15-----------]
G[----10-10----------------15/12-15/12------17--17----]
D[--------------------------------------------17--17--]

G[-17--17--17--17--17--17--17--17--17--17b--]
D[---17--17--17--17--17--17--17--17--17-----]
Then
G[-8/8/8/8--8/8/8/8--14/14/14/14--10s12-12---]
D[-5/5/5/5--5/5/5/5--12/12/12/12---xs-x--x---]
A[-6/6/6/6--5/5/5/5--13/13/13/13---8s10-10---]x3
D[-5/5/5/5--5/5/5/5--12/12/12/12-------------]

G[-8/8/8/8--7/7/7/7--14/14/14/14/14/14/14b---]
D[-5/5/5/5--5/5/5/5---0/-0/-0/-0/-0/-0/-0----]
A[-6/6/6/6--5/5/5/5---0/-0/-0/-0/-0/-0/-0----]
D[-5/5/5/5--5/5/5/5---0/-0/-0/-0/-0/-0/-0----]

Chorus
Gtr. 2
D[-8----3----8--3--0----8----3----8--3--7--]
A[-5----3----5--3--1----5----3----5--3--6--]
D[-5----3----5--3--1----5----3----5--3--7--]
Gtr. 1
E[-----13----13----13----13---8---8---8---8-----10---10---8---8--5--5--5--5-]
B[---11----11----11----11----6---6---6---6-----8----8----6---6--3--3--3--3--]
G[-12----12----12----12-----7---7---7---7----10---10----7---7--3--3--3--3---]

E[-----13----13----13----13---8---8---8---8-----10---10---8---8---------]
B[---11----11----11----11----6---6---6---6-----8----8----6---6----------]
G[-12----12----12----12-----7---7---7---7----10---10----7---7----3------]
D[---------------------------------------------------------------1------]
A[---------------------------------------------------------------0------]
Stop. Then.

Post-Chorus
Gtr. 2
E[-5-------------------5------------]
B[--3-------------------3-----------]
G[---5/0-5s7/0---2-3-----5/0-5s7----]
D[------------1h3-3-3---------------]
Gtr. 1
E[--------------------------------------------13--13--13--13---]
B[----------------------------11--11h13--13s15--15--15--15-----]
G[-----------------------10s12--12-----------------------------]


Bridge
E[--------5--------------------10--13-----13--13----]
B[---------6s8-------------------11---10----11--10--]
G[-5h7p5-------3---2-3--5h7p5-----------------------]x2
D[------8-------1h3-3--------8----------------------]


Ending
Gtr. 2
G[-7---------7------------]
D[-8----3----8----3----1--]
A[-5----3----5----3----1--]
D[-5----3----5----3----1--]
Gtr. 1
E[---------13---------------13------]
B[----11---------------11-------10--]
G[--12---12----------12---12--------]
Then...
E[-------------------------------------------13h15---------------------------]
B[---10---11---10-------10--11--10--------15-15h15-15-15-15-10-10-10-------8-]
G[-----10---10---10-------10--10--10--7---------------15-15-10-10---10-8h10--]
D[8p7----------------8p7-------------8---------------------------------------]
A[-------------------------------------10------------------------------------]
(x2)

B[---10---11---10-------10--11--10---------]
G[-----10---10---10-------10--10--10----7--]
D[8p7----------------8p7----------------8--]
A[-------------------------------------10--]

Almost there ...

Sign in to get your own page with links to favourite songs and more. You are just one click away...

Login with Facebook Login with Google