Search tabs and chords

Browse bands and artists

A B C D E F G H I J K L M N O P Q R S T U V W X Y Z #

Log in

[ Register here | Forgot password ]

Guitar Tabs Explorer
Print

Say You Won't Let Go tab by James Arthur

Guitar tabs

-------------------------------------------
Finally a new song by James Arthur!
First tab, contact me if there's any errors
-------------------------------------------


[Verse)

e|-----1--------------|-----1--------------|       ?
B|-----1--3-----------|-----1--3-----1-----|       ?
G|--------3-----3-----|--------3--------3--|       ?
D|--------------------|--3--------3--------|       ?
A|--1--------1-----1--|--------------------|       ?
E|--------------------|--------------------|       ?
                                                   ?
                                                   ?    x5
                                                   ?
e|-----1--------------|--------------------|       ?
B|-----1--3-----------|----4---4-----4\3---|       ?
G|--------3-----3-----|----3---3-----------|       ?
D|--------------------|--1--------1--------|       ?
A|--------------------|--------------------|       ?
E|--3--------3-----3--|--------------------|       ?



(Chorus)

e|-----1--------------|-----1--------------|       ?
B|-----1--3-----------|-----1--3-----1-----|       ?
G|--------3-----3-----|--------3--------3--|       ?
D|--------------------|--3--------3--------|       ?
A|--1--------1-----1--|--------------------|       ?
E|--------------------|--------------------|       ?
                                                   ?
                                                   ?   x2
                                                   ?
e|-----1--------------|--------------------|       ?
B|-----1--3-----------|----4---4-----4\3---|       ?
G|--------3-----3-----|----3---3-----------|       ?
D|--------------------|--1--------1--------|       ?
A|--------------------|--------------------|       ?
E|--3--------3-----3--|--------------------|       ?



e|-----1--------------|-----1--------------|
B|-----1--3-----------|-----1--3-----------|
G|--------3-----------|--------3-----------|
D|--------------------|--3-----------------|
A|--1-----------------|--------------------|
E|--------------------|--------------------|


e|-----1--------------|--------------------|
B|-----1--3-----------|----4---4-----4\3---|
G|--------3-----------|----3---3-----------|
D|--------------------|--1--------1--------|
A|--------------------|--------------------|
E|--3-----------------|--------------------|



(Verse 2)

e|-----1--------------|-----1--------------|
B|-----1--3-----------|-----1--3-----------|
G|--------3-----------|--------3-----------|
D|--------------------|--3-----------------|
A|--1-----------------|--------------------|
E|--------------------|--------------------|


e|-----1--------------|--------------------|
B|-----1--3-----------|----4---4-----4\3---|
G|--------3-----------|----3---3-----------|
D|--------------------|--1--------1--------|
A|--------------------|--------------------|
E|--3-----------------|--------------------|


e|-----1--------------|-----1--------------|
B|-----1--3-----------|-----1--3-----1-----|
G|--------3-----3-----|--------3----------|
D|--------------------|--3-----------------|
A|--1-----------------|--------------------|
E|--------------------|--------------------|


e|-----1--------------|--------------------|
B|-----1--3-----------|----4---4-----4\3---|
G|--------3-----3-----|----3---3-----------|
D|--------------------|--1--------1--------|
A|--------------------|--------------------|
E|--3-----------------|--------------------|



e|-----1--------------|-----1--------------|
B|-----1--3-----------|-----1--3-----1-----|
G|--------3-----3-----|--------3--------3--|
D|--------------------|--3--------3--------|
A|--1--------1-----1--|--------------------|
E|--------------------|--------------------|


e|-----1--------------|--------------------|
B|-----1--3-----------|----4---4-----4\3---|
G|--------3-----3-----|----3---3-----------|
D|--------------------|--1--------1--------|
A|--------------------|--------------------|
E|--3--------3-----3--|--------------------|



e|-----1--------------|-----1--------------|
B|-----1--3-----------|-----1--3-----1-----|
G|--------3-----3-----|--------3--------3--|
D|--------------------|--3--------3--------|
A|--1--------1-----1--|--------------------|
E|--------------------|--------------------|


e|-----1--------------|--------------------|
B|-----1--3-----------|----4---4-----4\3---|
G|--------3-----3-----|----3---3-----------|
D|--------------------|--1--------1--------|
A|--------------------|--------------------|
E|--3--------3-----3--|--------------------|




Chorus
e|-----1--------------|-----1--------------|       ?
B|-----1--3-----------|-----1--3-----1-----|       ?
G|--------3-----3-----|--------3--------3--|       ?
D|--------------------|--3--------3--------|       ?
A|--1--------1-----1--|--------------------|       ?
E|--------------------|--------------------|       ?
                                                   ?
                                                   ?  x2
                                                   ?
e|-----1--------------|--------------------|       ?
B|-----1--3-----------|----4---4-----4\3---|       ?
G|--------3-----3-----|----3---3-----------|       ?
D|--------------------|--1--------1--------|       ?
A|--------------------|--------------------|       ?
E|--3--------3-----3--|--------------------|       ?



e|-----1--------------|-----1--------------|
B|-----1--3-----------|-----1--3-----------|
G|--------3-----------|--------3-----------|
D|--------------------|--3-----------------|
A|--1-----------------|--------------------|
E|--------------------|--------------------|


e|-----1--------------|--------------------|
B|-----1--3-----------|----4---4-----4\3---|
G|--------3-----------|----3---3-----------|
D|--------------------|--1--------1--------|
A|--------------------|--------------------|
E|--3-----------------|--------------------|


(Bridge)

Piano
Bb F Gm Eb?



(Outro)

e|-----1--------------|-----1--------------|       ?
B|-----1--3-----------|-----1--3-----1-----|       ?
G|--------3-----3-----|--------3--------3--|       ?
D|--------------------|--3--------3--------|       ?
A|--1--------1-----1--|--------------------|       ?
E|--------------------|--------------------|       ?
                                                   ?
                                                   ?  x2
                                                   ?
e|-----1--------------|--------------------|       ?
B|-----1--3-----------|----4---4-----4\3---|       ?
G|--------3-----3-----|----3---3-----------|       ?
D|--------------------|--1--------1--------|       ?
A|--------------------|--------------------|       ?
E|--3--------3-----3--|--------------------|       ?



e|-----1--------------|-----1--------------|
B|-----1--3-----------|-----1--3-----------|
G|--------3-----------|--------3-----------|
D|--------------------|--3-----------------|
A|--1-----------------|--------------------|
E|--------------------|--------------------|


e|-----1--------------|--------------------|
B|-----1--3-----------|----4---4-----4\3---|
G|--------3-----------|----3---3-----------|
D|--------------------|--1--------1--------|
A|--------------------|--------------------|
E|--3-----------------|--------------------|






***********************************

| \   slide down

Other versions of Say You Won't Let Go

- Say you won't let goChords
- Say you won't let go (Ver. 2)Chords
- Say you won't let go (Ver. 3)Chords
- Say you won't let go - girls perspectiveChords
- Say you won't let go acousticChords
- Say you won't let go female keyChords
- Say you won't let go (Ver. 2) - introTabs
- Say you won't let go (Ver. 3)Tabs
- Say you won't let go (Ver. 4)Tabs
- Say you won't let go acousticTabs

Comments