Search tabs and chords

Browse bands and artists

A B C D E F G H I J K L M N O P Q R S T U V W X Y Z #

Log in

[ Register here | Forgot password ]

Guitar Tabs Explorer
Print

Say You Won't Let Go Acoustic tab by James Arthur

Guitar tabs with lyrics

Legend:
\ = Slide

Enjoy


Verse
Guitar 1
  Bb           F                 Gm            Eb
e|---1--------|---1------------|---1---------|-------------------|
B|---3--3----3|---3--3----3----|---3--3----3-|------4--4-----4\3-|
G|------3----3|------3----3----|------3----3-|------3--3-----3---|
D|------------|-3----3--3------|-------------|---1---------1-----|
A|-1----1---1-|-------------0--|-------------|-------------------|
E|------------|----------------|-3----3---3--|-------------------|

Guitar 2
e|------------|----------------|-------------|--------------------|
B|------------|----------------|-------------|--------------------|
G|------------|----------------|-------------|--------------------|
D|-8----------|-3--------------|-5-----------|--13-----------13\12|
A|-8----------|-3--------------|-5-----------|--13-----------13\12|
E|-6----------|-1--------------|-3-----------|--11-----------11\10|



Bb
I met you in the dark
F
You lit me up
Gm
You made me feel as though
Eb
I was enough
Bb
We danced the night away
F
We drank too much
Gm
I held your hair back when
Eb
You were throwing up


Chorus
Guitar 1
  Bb           F                 Gm            Eb
e|---1--------|---1------------|---1---------|-------------------|
B|---3--3----3|---3--3----3----|---3--3----3-|------4--4-----4\3-|
G|------3----3|------3----3----|------3----3-|------3--3-----3---|
D|------------|-3----3--3------|-------------|---1---------1-----|
A|-1----1---1-|-------------0--|-------------|-------------------|
E|------------|----------------|-3----3---3--|-------------------|

Guitar 2
e|------------|----------------|-------------|-------------------|
B|------------|----------------|-------------|-------------------|
G|------------|----------------|-------------|-------------------|
D|-8----------|-3--------------|-5-----------|--13----------13\12|
A|-8----------|-3--------------|-5-----------|--13----------13\12|
E|-6----------|-1--------------|-3-----------|--11----------11\10|

Bb
Then you smiled over your shoulder
F
For a minute, I was stone cold sober
Gm                         Eb
I pulled you closer to my chest
Bb
And you asked me to stay over
F
I said, I already told ya
Gm                                Eb
I think that you should get some rest
span class="heading">Chorus
Guitar One
   Bb           F                 Gm            Eb
e|---1--------|---1------------|---1---------|-------------------|
B|---3--3----3|---3--3----3----|---3--3----3-|------4--4-----4\3-|
G|------3----3|------3----3----|------3----3-|------3--3-----3---|
D|------------|-3----3--3------|-------------|---1---------1-----|
A|-1----1---1-|-------------0--|-------------|-------------------|
E|------------|----------------|-3----3---3--|-------------------|
Guitar 2
    Bb            F              Gm            Eb
e|--6----------|--1------------|--3---------|--6-----------------------|
B|--6----------|--1------------|--3---------|--8-----------------------|
G|--7----------|--2------------|--3---------|--8-----------------------|
D|--8----------|--3------------|--5---------|--8-----------------------|
A|--8----------|--3------------|--5---------|--6-----------------------|
E|--6----------|--2------------|--3---------|--6-----------------------|
Bb
I knew I loved you then
F
But you'd never know
Gm                                                 Eb
Cause I played it cool when I was scared of letting go
Bb
I know I needed you
F
But I never showed
Gm
But I wanna stay with you
Bb
Until we're grey and old

Bb                     F
Just say you won't let go
Gm                    Eb
Just say you won't let go




Verse
  Bb           F                 Gm            Eb
e|---1--------|---1------------|---1---------|-------------------|
B|---3--3----3|---3--3----3----|---3--3----3-|------4--4-----4\3-|
G|------3----3|------3----3----|------3----3-|------3--3-----3---|
D|------------|-3----3--3------|-------------|---1---------1-----|
A|-1----1---1-|-------------0--|-------------|-------------------|
E|------------|----------------|-3----3---3--|-------------------|

Guitar 2
e|------------|----------------|-------------|--------------------|
B|------------|----------------|-------------|--------------------|
G|------------|----------------|-------------|--------------------|
D|-8----------|-3--------------|-5-----------|--13-----------13\12|
A|-8----------|-3--------------|-5-----------|--13-----------13\12|
E|-6----------|-1--------------|-3-----------|--11-----------11\10|


Bb                    F
I wake you up with some breakfast in bed
Gm
I'll bring you coffee
Eb
With a kiss on your head
Bb
And I'll take the kids to school
F
Wave them goodbye
Gm                          Eb
And I'll thank my lucky stars for that night

Guitar 1
 Bb           F                 Gm            Eb
e|---1--------|---1------------|---1---------|-------------------|
B|---3--3----3|---3--3----3----|---3--3----3-|------4--4-----4\3-|
G|------3----3|------3----3----|------3----3-|------3--3-----3---|
D|------------|-3----3--3------|-------------|---1---------1-----|
A|-1----1---1-|-------------0--|-------------|-------------------|
E|------------|----------------|-3----3---3--|-------------------|

Guitar 2
e|------------|----------------|-------------|--------------------|
B|------------|----------------|-------------|--------------------|
G|------------|----------------|-------------|--------------------|
D|-8----------|-3--------------|-5-----------|--13-----------13\12|
A|-8----------|-3--------------|-5-----------|--13-----------13\12|
E|-6----------|-1--------------|-3-----------|--11-----------11\10|

Bb
When you looked over your shoulder
F
For a minute, I forget that I'm older
Gm                            Eb
I wanna dance with you right now, oh
 Bb
And you look as beautiful as ever
   F
And I swear that everyday you'll get better
   Gm                        Eb
You make me feel this way somehow


Guitar One
 Bb           F                 Gm            Eb
e|---1--------|---1------------|---1---------|-------------------|
B|---3--3----3|---3--3----3----|---3--3----3-|------4--4-----4\3-|
G|------3----3|------3----3----|------3----3-|------3--3-----3---|
D|------------|-3----3--3------|-------------|---1---------1-----|
A|-1----1---1-|-------------0--|-------------|-------------------|
E|------------|----------------|-3----3---3--|-------------------|

Guitar 2
    Bb            F              Gm            Eb
e|--6----------|--1------------|--3---------|--6-----------------------|
B|--6----------|--1------------|--3---------|--8-----------------------|
G|--7----------|--2------------|--3---------|--8-----------------------|
D|--8----------|--3------------|--5---------|--8-----------------------|
A|--8----------|--3------------|--5---------|--6-----------------------|
E|--6----------|--2------------|--3---------|--6-----------------------|

Bb
I'm so in love with you
F
And I hope you know
Gm                                          Eb
Darling your love is more than worth its weight in gold
Bb
We've come so far my dear
F
Look how we've grown
Gm
And I wanna stay with you
Eb
Until we're grey and old
Bb                 F
Just say you won't let go
Gm                  Eb
Just say you won't let go


 Verse
  Bb           F                 Gm            Eb
e|---1--------|---1------------|---1---------|-------------------|
B|---3--3----3|---3--3----3----|---3--3----3-|------4--4-----4\3-|
G|------3----3|------3----3----|------3----3-|------3--3-----3---|
D|------------|-3----3--3------|-------------|---1---------1-----|
A|-1----1---1-|-------------0--|-------------|-------------------|
E|------------|----------------|-3----3---3--|-------------------|

Guitar 2
e|------------|----------------|-------------|--------------------|
B|------------|----------------|-------------|--------------------|
G|------------|----------------|-------------|--------------------|
D|-8----------|-3--------------|-5-----------|--13-----------13\12|
A|-8----------|-3--------------|-5-----------|--13-----------13\12|
E|-6----------|-1--------------|-3-----------|--11-----------11\10|

Bb
I wanna live with you
F
Even when we're ghosts
Gm
Cause you were always there for me
Eb
When I needed you most


Chorus
Guitar One

 Bb           F                 Gm            Eb
e|---1--------|---1------------|---1---------|-------------------|
B|---3--3----3|---3--3----3----|---3--3----3-|------4--4-----4\3-|
G|------3----3|------3----3----|------3----3-|------3--3-----3---|
D|------------|-3----3--3------|-------------|---1---------1-----|
A|-1----1---1-|-------------0--|-------------|-------------------|
E|------------|----------------|-3----3---3--|-------------------|

Guitar 2
    Bb            F              Gm            Eb
e|--6----------|--1------------|--3---------|--6-----------------------|
B|--6----------|--1------------|--3---------|--8-----------------------|
G|--7----------|--2------------|--3---------|--8-----------------------|
D|--8----------|--3------------|--5---------|--8-----------------------|
A|--8----------|--3------------|--5---------|--6-----------------------|
E|--6----------|--2------------|--3---------|--6-----------------------|

Bb
I'm gonna love you till

F
My lungs give out

Gm
I promise till death we part

Eb
Like in our vows

Bb
So I wrote this song for you

 F
Now everybody knows

Gm
That it's just you and me

Eb
Until we're grey and old


Bb             F
Just say you won't let go
Gm             Eb
Just say you won't let go
Bb              F
Just say you won't let go
Gm             Eb

Other versions of Say You Won't Let Go Acoustic

- Say you won't let goChords
- Say you won't let go (Ver. 2)Chords
- Say you won't let go (Ver. 3)Chords
- Say you won't let go - girls perspectiveChords
- Say you won't let go acousticChords
- Say you won't let go female keyChords
- Say you won't let goTabs
- Say you won't let go (Ver. 2) - introTabs
- Say you won't let go (Ver. 3)Tabs
- Say you won't let go (Ver. 4)Tabs

Comments