Search tabs and chords

Browse bands and artists

A B C D E F G H I J K L M N O P Q R S T U V W X Y Z #

Log in

[ Register here | Forgot password ]

Guitar Tabs Explorer
Print

Guitar tabs :

Say You Won't Let Go tab by James Arthur (Ver. 4)

This is an easy version of Say You Won't Let Go which won't require barre chords, and instead utilizes a capo.
Leave a comment if there are any errors.
Link to video lesson: https://www.youtube.com/watch?v=djm7NVjrdPM

Verse 1
e|----0---------|----0---------|----0---------|--------------|
B|----2-2----2--|----2-2----2--|----2-2----2--|----3-3----3s2|
G|------2----2--|------2----2--|------2----2--|----2-2-------|   x5
D|--------------|-2-------2---2|--------------|-0-------0----|
A|-0-------0---0|--------------|--------------|--------------|
E|--------------|--------------|-2-------2---2|--------------|

Chorus
e|----0---------|----0---------|----0---------|--------------|
B|----2-2----2--|----2-2----2--|----2-2----2--|----3-3----3s2|
G|------2----2--|------2----2--|------2----2--|----2-2-------|   x2
D|--------------|-2-------2---2|--------------|-0-------0----|
A|-0-------0---0|--------------|--------------|--------------|
E|--------------|--------------|-2-------2---2|--------------|

Verse 2
e|----0---------|----0---------|----0---------|--------------|
B|----2-2-------|----2-2-------|----2-2-------|----3-3----3s2|
G|------2-------|------2-------|------2-------|----2-2-------|
D|--------------|-2------------|--------------|-0-------0----|
A|-0------------|--------------|--------------|--------------|
E|--------------|--------------|-2------------|--------------|


e|----0---------|----0---------|----0---------|--------------|
B|----2-2-------|----2-2----0--|----2-2-------|----3-3----3s2|
G|------2----2--|------2-------|------2----2--|----2-2-------|
D|--------------|-2------------|--------------|-0-------0----|
A|-0------------|--------------|--------------|--------------|
E|--------------|--------------|-2------------|--------------|

e|----0---------|----0---------|----0---------|--------------|
B|----2-2----2--|----2-2----0--|----2-2----2--|----3-3----3s2|
G|------2----2--|------2------2|------2----2--|----2-2-------|   x2
D|--------------|-2-------2----|--------------|-0-------0----|
A|-0-------0---0|--------------|--------------|--------------|
E|--------------|--------------|-2-------2---2|--------------|

Chorus
e|----0---------|----0---------|----0---------|--------------|
B|----2-2----2--|----2-2----2--|----2-2----2--|----3-3----3s2|
G|------2----2--|------2----2--|------2----2--|----2-2-------|   x2
D|--------------|-2-------2---2|--------------|-0-------0----|
A|-0-------0---0|--------------|--------------|--------------|
E|--------------|--------------|-2-------2---2|--------------|


e|----0---------|----0---------|----0---------|--------------|
B|----2-2-------|----2-2-------|----2-2-------|----3-3----3s2|
G|------2-------|------2-------|------2-------|----2-2-------|
D|--------------|-2------------|--------------|-0-------0----|
A|-0------------|--------------|--------------|--------------|
E|--------------|--------------|-2------------|--------------|

Bridge
A E F#m D

Outro
e|----0---------|----0---------|----0---------|--------------|
B|----2-2----2--|----2-2----2--|----2-2----2--|----3-3----3s2|
G|------2----2--|------2----2--|------2----2--|----2-2-------|   x2
D|--------------|-2-------2---2|--------------|-0-------0----|
A|-0-------0---0|--------------|--------------|--------------|
E|--------------|--------------|-2-------2---2|--------------|


e|----0---------|----0---------|----0---------|--------------|
B|----2-2-------|----2-2-------|----2-2-------|----3-3----3s2|
G|------2-------|------2-------|------2-------|----2-2-------|
D|--------------|-2------------|--------------|-0-------0----|
A|-0------------|--------------|--------------|--------------|
E|--------------|--------------|-2------------|--------------|



************************************

| s
 Slide

Other versions of Say You Won't Let Go

Say you won't let goChords
Say you won't let go (Ver. 2)Chords
Say you won't let go (Ver. 3)Chords
Say you won't let go - girls perspectiveChords
Say you won't let go acousticChords
Say you won't let goTabs
Say you won't let go (Ver. 2) - introTabs
Say you won't let go (Ver. 3)Tabs
Say you won't let go - introTabs
Say you won't let go acousticTabs

Comments

James Arthur guitar tabs for Say you wont let go (Ver. 4)