Guitar Tabs Explorer
James Arthur guitar tabs for Say you wont let go (Ver. 3)

Say You Won't Let Go tab


4.2 / 5 [5 votes]

Say You Won't Let Go tab by James Arthur (Ver. 3)

Guitar tabs

Print
Intro:

e|----------------------|----------------------|-------------------|---------------------|
B|-----3-----0----------|-----3-----0----------|-----3-----0-------|-----1-----1----1p0--|
G|-----0-----0-----2p0--|-----2-----2-----1s2--|-----0-----0--2p0--|-----0-----0---------|
D|-----0-----0----------|--0--------0--0-------|-----2-----2-------|-----2-----2---------|
A|----------------------|----------------------|-------------------|--3--------3--3------|
E|--3-----x--3--3-------|--------x-------------|--0-----x--0--0----|--------x------------|


Verse:

    I met you in the dark....
e|-------------------------|-------------------------|-------------------------|--------------------|
B|-----3--3-----0----------|-----3--3-----0----------|-----3--3-----0----------|-----1p0--1p0--1p0--|
G|-----0--------------2p0--|-----2--------------1s2--|-----0--------------2p0--|-----0--------------|
D|-----0-------------------|--0--------0-----0-------|-----2-------------------|-----2--------------|
A|-------------------------|-------------------------|-------------------------|--3------------3----|
E|--3--------3-----3-------|-------------------------|--0--------0-----0-------|--------------------|

e|-------------------------|--------0----------------|-------------------------|-------------------------|
B|-----3--3-----0----------|-----3--------0----------|-----3--3-----0----------|-----1p0--1p0--1p0--0----|
G|-----0--------------2p0--|-----2--------------1s2--|-----0--------------2p0--|-----0--------------0----|
D|-----0-------------------|--0--------0-----0-------|-----2-------------------|-----2--------------2----|
A|-------------------------|-------------------------|-------------------------|--3------------3---------|
E|--3--------3-----3-------|-------------------------|--0--------0-----0-------|--------------------x----|



Pre-Chorus:

    Then you smiled over your shoulder......
e|-----------------------------------|-------------------------------------|
B|-----------------------------------|----------------------------------0--|
G|-------------0----------0--0h2--0--|-------------0-------0----0--0h2-----|
D|-----0h2-----------0h2-------------|-----0h2-----------0----0------------|
A|-----------------------------------|-------------------------------------|
E|--3-------x-----3----------x-------|--2-------x-----2------------x-------|

e|----------------------------|----------------------|
B|-----0-----0--0h1--0--0-----|--------0-----1--1p0--|
G|-----0--2-----0-------0--0--|-----0--0-------------|
D|-----2--------2-------------|----------------------|
A|--2-----------2-------------|--3--------3----------|
E|--------x-------------x-----|--------x--------x----|
     And you asked me to stay over....
e|-----------------------------------|-----------------------------------|
B|-----------------------------------|--------------------------------0--|
G|-------------0----------0--0h2--0--|-------------0----------0--0h2-----|
D|-----0h2-----------0h2-------------|-----0h2-----------0h2-------------|
A|-----------------------------------|-----------------------------------|
E|--3-------x-----3----------x-------|--2-------x-----2------------------|

e|----------------------------|----------------------|
B|-----0-----0--0h1--0--0-----|--------0-----1--1p0--|
G|-----0--2-----0-------0--0--|-----0--0-------------|
D|-----2--------2-------------|----------------------|
A|--2-----------2-------------|--3--------3----------|
E|--------x-------------x-----|--------x--------x----|

Chorus:

      I knew I loved you then.....
e|-------------------------|-------------------------|-------------------------|-------------------------|
B|-----3--3--0--0----------|-----3--3-----0----------|-----3--3--0--0----------|-----1p0--1p0--1p0--0----|
G|-----0--0-----------2p0--|-----2--2-----------1s2--|-----0--0-----------2p0--|-----0----0---------0----|
D|-----0-------------------|--0--------0-----0--0----|-----2-------------------|-----2-------------------|
A|-------------------------|-------------------------|-------------------------|--3------------3---------|
E|--3-----x--3-----3----x--|--------x-----------x----|--0-----x--0-----0----x--|----------x---------x----|

e|-------------------------|--------0----------------|-------------------------|-------------------------|
B|-----3--3--0--0----------|-----3--3-----0----------|-----3--3--0--0----------|-----1p0--1p0--1p0--0----|
G|-----0--0-----------2p0--|-----2--------------1s2--|-----0--0-----------2p0--|-----0----0---------0----|
D|-----0-------------------|--0--------0-----0--0----|-----2-------------------|-----2-------------------|
A|-------------------------|-------------------------|-------------------------|--3------------3---------|
E|--3-----x--3-----3----x--|--------x-----------x----|--0-----x--0-----0----x--|----------x---------x----|

      Just say you won't let go.....
e|-----2--3--------------|---------------------|-----2--3--------------|-----------------------|
B|--3-----------3--0--3--|------3--3-----3--3--|--3-----------3--0--3--|------------1-----1p0--|
G|--------------------0--|----2----2--------2--|--------------------0--|------0----------------|
D|-----------------------|--0------0--0--------|-----------------------|----2------------------|
A|-----------------------|---------------------|-----2--------2--------|--3---------3--3-------|
E|-----3-----x--3-----x--|---------x--------x--|-----------x--------x--|---------x--------x----|


Verse:

    I wake you up with some breakfast in bed...
e|-------------------------|-------------------------|-------------------------|-------------------|
B|-----3--3-----0----------|-----3--3-----0----------|-----3--3-----0----------|-----1--1-----1p0--|
G|-----0--------------2p0--|-----2--------------1s2--|-----0--------------2p0--|-----0-------------|
D|-----0-------------------|--0--------0-----0-------|-----2-------------------|-----2-------------|
A|-------------------------|-------------------------|-------------------------|--3--------3-------|
E|--3--------3-----3-------|-------------------------|--0--------0-----0-------|-------------------|

e|-------------------------|--------0----------------|-------------------------|-------------------------|
B|-----3--3-----0----------|-----3--------0----------|-----3--3-----0----------|-----1p0--1p0--1p0--0----|
G|-----0--------------2p0--|-----2--------------1s2--|-----0--------------2p0--|-----0--------------0----|
D|-----0-------------------|--0--------0-----0-------|-----2-------------------|-----2--------------2----|
A|-------------------------|-------------------------|-------------------------|--3------------3---------|
E|--3--------3-----3-------|-------------------------|--0--------0-----0-------|--------------------x----|


Pre-Chorus:

    When you looked over your shoulder......
e|-----------------------------------|-----------------------------------|
B|-----------------------------------|--------------------------------0--|
G|-------------0----------0--0h2--0--|-------------0----------0--0h2-----|
D|-----0h2-----------0h2-------------|-----0h2-----------0h2-------------|
A|-----------------------------------|-----------------------------------|
E|--3-------x-----3----------x-------|--2-------x-----2------------------|

e|----------------------------|----------------------|
B|-----0-----0--0h1--0--0-----|--------0-----3--1p0--|
G|-----0--2-----0-------0--0--|-----0--0-------------|
D|-----2--------2-------------|----------------------|
A|--2-----------2-------------|--3--------3----------|
E|--------x-------------x-----|--------x--------x----|

e|-----------------------------------|-------------------------------------|
B|-----3--3--------------------------|----------------------------------0--|
G|-----0--0----------0--0h2--0-------|-------------0-------0----0--0h2-----|
D|-----0--------0h2------------------|-----0h2-----------0----0------------|
A|-----------------------------------|-------------------------------------|
E|--3-----x--3----------x------------|--2-------x-----2------------x-------|

e|----------------------------|----------------------|
B|----3--3-----1-----0--------|--------0-----1--1p0--|
G|----0--0--------------0--0--|-----0--0-------------|
D|----2-----------------0-----|----------------------|
A|--2-------2-----2-----------|--3--------3----------|
E|-------x--------------x-----|--------x--------x----|


Chorus:

      I knew I loved you then.....
e|-------------------------|-------------------------|-------------------------|-------------------------|
B|-----3--3--0--0----------|-----3--3-----0----------|-----3--3--0--0----------|-----1p0--1p0--1p0--0----|
G|-----0--0-----------2p0--|-----2--2-----------1s2--|-----0--0-----------2p0--|-----0----0---------0----|
D|-----0-------------------|--0--------0-----0--0----|-----2-------------------|-----2-------------------|
A|-------------------------|-------------------------|-------------------------|--3------------3---------|
E|--3-----x--3-----3----x--|--------x-----------x----|--0-----x--0-----0----x--|----------x---------x----|

e|-------------------------|--------0----------------|-------------------------|-------------------------|
B|-----3--3--0--0----------|-----3--3-----0----------|-----3--3--0--0----------|-----1p0--1p0--1p0--0----|
G|-----0--0-----------2p0--|-----2--------------1s2--|-----0--0-----------2p0--|-----0----0---------0----|
D|-----0-------------------|--0--------0-----0--0----|-----2-------------------|-----2-------------------|
A|-------------------------|-------------------------|-------------------------|--3------------3---------|
E|--3-----x--3-----3----x--|--------x-----------x----|--0-----x--0-----0----x--|----------x---------x----|

      Just say you won't let go.....
e|-----2--3--------------|---------------------|-----2--3--------------|-----------------------|
B|--3-----------3--0--3--|------3--3-----3--3--|--3-----------3--0--3--|------------1-----1p0--|
G|--------------------0--|----2----2--------2--|--------------------0--|------0----------------|
D|-----------------------|--0------0--0--------|-----------------------|----2------------------|
A|-----------------------|---------------------|-----2--------2--------|--3---------3--3-------|
E|-----3-----x--3-----x--|---------x--------x--|-----------x--------x--|---------x--------x----|


Bridge:
       I wanna live with you........
e|-------------------------|----------------------------|---------------------------|------------------------|
B|-----3--3-----0----------|-----3-----3-----0----------|-----3--3-3-----0----------|-----1p0--1p0--1p0--0---|
G|-----0--------------2p0--|-----2-----------------1s2--|-----0----------------2p0--|-----0--------------0---|
D|-----0-------------------|--0-----0-----0-----0-------|-----2---------------------|-----2--------------2---|
A|-------------------------|----------------------------|---------------------------|--3------------3--------|
E|--3--------3-----3-------|----------------------------|--0----------0-----0-------|--------------------x---|


Chorus:
      I'm gonna love you till.....
e|-------------------------|--------0----------------|-------------------------|-------------------------|
B|-----3--3--0--0----------|-----3--3-----0----------|-----3--3--0--0----------|-----1p0--1p0--1p0--0----|
G|-----0--0-----------2p0--|-----2--------------1s2--|-----0--0-----------2p0--|-----0----0---------0----|
D|-----0-------------------|--0--------0-----0--0----|-----2-------------------|-----2-------------------|
A|-------------------------|-------------------------|-------------------------|--3------------3---------|
E|--3-----x--3-----3----x--|--------x-----------x----|--0-----x--0-----0----x--|----------x---------x----|

e|-------------------------|--------0----------------|-------------------------|-------------------------|
B|-----3--3--0--0----------|-----3--3-----0----------|-----3--3--0--0----------|-----1p0--1p0--1p0--0----|
G|-----0--0-----------2p0--|-----2--------------1s2--|-----0--0-----------2p0--|-----0----0---------0----|
D|-----0-------------------|--0--------0-----0--0----|-----2-------------------|-----2-------------------|
A|-------------------------|-------------------------|-------------------------|--3------------3---------|
E|--3-----x--3-----3----x--|--------x-----------x----|--0-----x--0-----0----x--|----------x---------x----|

      Just say you won't let go.....
e|-----2--3--------------|---------------------|------2--3-----3s5--0--3--|-----0h2p0--0-------------|
B|--3-----------3--0--3--|------3--3-----3--3--|---3-------------------0--|------------0-----0h3--0--|
G|--------------------0--|----2----2--------2--|--------------------------|-----------------------0--|
D|-----------------------|--0------0--0--------|--------------------------|--------------------------|
A|-----------------------|---------------------|------2--------2----------|--3------------3----------|
E|-----3-----x--3-----x--|---------x--------x--|------------x----------x--|------------x----------x--|


Outro:
      Just say you won't let go.....
e|-----0------------------|---------------------|-----2--3--------------|-----------------------|
B|--3-----3-----0---------|------3--3-----3--3--|--3-----------3--0--3--|------------1-----1p0--|
G|-----------------0h2-2--|----2----2--------2--|--------------------0--|------0----------------|
D|---------------------0--|--0------0--0--------|-----------------------|----2------------------|
A|------------------------|---------------------|-----2--------2--------|--3---------3--3-------|
E|-----3-----x--3------x--|---------x--------x--|-----------x--------x--|---------x--------x----|

Other versions of Say You Won't Let Go

- Say you won't let goChords
- Say you won't let go (Ver. 2)Chords
- Say you won't let go (Ver. 3)Chords
- Say you won't let go - girls perspectiveChords
- Say you won't let go acousticChords
- Say you won't let go female keyChords
- Say you won't let goTabs
- Say you won't let go (Ver. 2) - introTabs
- Say you won't let go (Ver. 4)Tabs
- Say you won't let go acousticTabs

Comment this song and these guitar tabs

Do you have corrections, comments on the guitar tabs, thoughts about the song or a message to the author? Write them below.