Guitar Tabs Explorer
James Arthur guitar tabs for Remember who i was

Remember Who I Was tab


Be the first to rate

Remember Who I Was tab by James Arthur

Guitar tabs

Print

Intro:
E|------------------------------------------------------------------------|
B|------------------------------------------------------------------------|
G|----------------------4---------------------------------4---------------|
D|----8------5-----------------6--------8------5-----------------6--------|
A|----6---------------------------------6---------------------------------|
E|-----------6----------4------4---------------6----------4------4--------|

Verse:
E|------------------------------------------------------------------------|\
B|------------------------------------------------------------------------| \
G|----------------------4---------------------------------4---------------|  \
D|----8------5-----------------6--------8------5-----------------6--------|   \
A|----6---------------------------------6---------------------------------|    \
E|-----------6----------4------4---------------6----------4------4--------|     \
                                                                                 \
E|--------------------------------------|                                         \
B|--------------------------------------|                                          \
G|----8-----------------7---------------|                                          / x2
D|-----------10----------------8--------|                                         /
A|--------------------------------------|                                        /
E|----8------8----------6------6--------|_______________________________________/

E|--------------------------------------|
B|--------------------------------------|
G|----3--------------------4------------|
D|-----------6-------------3------------|
A|-------------------------2------------|
E|----4------4-------------4------------|

Chorus:
E|------------------------------------------------------------------------|
B|---------------------------------------------4------------------4-------|
G|----------------------7------7--------5------5-------------------4------| x2
D|----5------5-----------------5--------------------------6------6--6-----|
A|--------------------------------------3------3---------------------5----|
E|----6------6----------6------6--------------------------4------4--------|

E|------------------------------------------------------------------------|
B|----------------------------------------------------------------4-------|
G|----8-----------------4---------------8-----------------4--------4-4----|
D|----8------8-----------------6--------8------8-----------------6----6---|
A|----6------6--------------------------6------6--------------------------|
E|----------------------4------4--------------------------4------4--------|

Verse:
E|------------------------------------------------------------------------|\
B|------------------------------------------------------------------------| \
G|----------------------4---------------------------------4---------------|  \
D|----8------5-----------------6--------8------5-----------------6--------|   \
A|----6---------------------------------6---------------------------------|    \
E|-----------6----------4------4---------------6----------4------4--------|     \
                                                                                 \
E|--------------------------------------|                                         \
B|--------------------------------------|                                          \
G|----8-----------------7---------------|                                          / x2
D|-----------10----------------8--------|                                         /
A|--------------------------------------|                                        /
E|----8------8----------6------6--------|_______________________________________/

E|--------------------------------------|
B|--------------------------------------|
G|----3--------------------4------------|
D|-----------6-------------3------------|
A|-------------------------2------------|
E|----4------4-------------4------------|

Chorus:
E|------------------------------------------------------------------------|
B|---------------------------------------------4------------------4-------|
G|----------------------7------7--------5------5-------------------4------| x2
D|----5------5-----------------5--------------------------6------6--6-----|
A|--------------------------------------3------3---------------------5----|
E|----6------6----------6------6--------------------------4------4--------|

E|------------------------------------------------------------------------|
B|----------------------------------------------------------------4-------|
G|----8-----------------4---------------8-----------------4--------44-----| x2
D|----8------8-----------------6--------8------8-----------------6---6----|
A|----6------6--------------------------6------6--------------------------|

Other versions of Remember Who I Was

- Remember who I wasChords

Comment this song and these guitar tabs

Do you have corrections, comments on the guitar tabs, thoughts about the song or a message to the author? Write them below.